.

banners

Los grandes del Thrash metal... Tablaturas y cerveza.



   Conocidos como los "Cuatro pilares del Trhash Metal" éstas cuatro bandas ensalzaron durante los 80' al singular subgénero o subestilo dentro del Heavy Metal hasta colocarlo en lo más alto dentro de numerosas listas de éxitos y aún hoy, lo siguen haciendo.








  Desde TabsFácil.es hoy queremos hacer un breve repaso de éstas cuatro bandas, su "Bio", su cerveza y sus Tablaturas, que tantos y tantos guitarristas hemos tocado.


Cerveza Metallica.

  Metallica, la banda de thrash y heavy metal mundialmente conocida por éxitos como “Master of puppets,” “One” y “Enter Sadman” entre otros tantos, formada en 1981 en Los Angeles pero con base en San Francisco desde 1983 en colaboración con Labatt la empresa propietaria de Budweiser, una de las cervezas mas populares de EEUU han unido fuerzas para lanzar al mercado la cerveza Bud Magnetic.
  La cerveza Budweiser es una cerveza tipo lager elaborada con levaduras especiales y almacenadas en bodegas a temperaturas frías para limpiar y estabilizar su sabor. Contiene en su receta una proporción de arroz y 4% de alcohol.
 La pena es que solo han producido una edición limitada de 91.000 latas de color negro y con el logo de la banda, que estuvieron a la venta solamente en Canada aprovechando los dos conciertos que dio la banda en la ciudad de Quebec, con motivo de la inauguración del centro Vidéotron, un recinto deportivo de dicha ciudad.
  Seguro que si la hubieran comercializado en otras partes del mundo habría alcanzado cierto éxito sobre todo por la capacidad de convocatoria que tiene la banda a nivel mundial, ya que Metallica se ha convertido en un referente en el mundo del rock y el heavy metal mundial.













Tablaturas de Metallica.


Master of puppets. Metallica.

1.------------------------------|
2.------------------------------|
3.------------------------------|
4.----7--6--5-------------------|
5.-2--5--4--3------7------6-----5
6.-0-----------0-0----0-0---0-0-|

1.------------------------------|
2.------------------------------|
3.------------------------------|
4.-7--6--5----------------------|
5.-5--4--3----------------------|
6.----------0-0-7-0-0-6-0-0-5-0-4

1.----------|
2.----------|
3.----------|
4.----------|
5.----------|

6.-0-3-0-2--|...


Atlas, rise! Metallica.

1.---------------------------|
2.---------------------------|
3.---------------------------|
4.-2-----2-2-----2---------2-|
5.-0-----0-0-----0-0-1-0---0-|
6.---0-0-----0-0---------3---|

1.---------------------------|
2.---------------------------|
3.---------------------------|
4.----2-2-----2---------2----|
5.----0-0-----0-0-1-0---0----|
6.-0-0----0-0---------3---0-0|

1.---------------------------|
2.---------------------------|
3.---------------------------|
4.-2-2------2---------2------|
5.-0-0------0-0-1-0---0------|
6.-----0-0----------3---0-0--|

1.------------------------|
2.------------------------|
3.------------------------|
4.-2-2------------------2-|
5.-0-0--0-1-0------3-2--0-|
6.------------3-1--1-0----|...

Moth into flame. Metallica.

1.---------------------------------------|
2.------------------8--------------------|
3.-/9-10-9-7-----/9---9-7------/9-10-9-7-|
4.---------------------------------------|
5.------------2------------2-2-----------|
6.------------0------------0-0-----------|

1.---------------------------------------|
2.-------8-------------------------------|
3.----/9---9-7-------/9-10-9-7-----------|
4.---------------------------------------|
5.-2------------2-2-------------/7-8-7---|
6.-0------------0-0----------------------|

1.---------------------------------------|
2.---------------------------------------|
3.---------------------------------------|
4.-----5---------------5---9--7----------|
5.-5/7---7-5/7-8-7-5/7-----7--5----------|
6.--------------------------------0-0-0--|

1.---------------------------------------|
2.---------------------------------------|
3.---------------------------------------|
4.---------------------------------------|
5.---------------------------------------|
6.-0-0--0-0-0--0-0-0--0-0--0-0-0--0-0-0--|

1.---------------------------------------|
2.---------------------------------------|
3.---------------------------------------|
4.---------------------------------------|
5.---------------------------------------|
6.-0-0-0--0-0--0-0-0--0-0-0--0-0--0-0-0--|

1.---------------------------------------|
2.---------------------------------------|
3.---------------------------------------|
4.---------------------------------------|
5.---------------------------------------|
6.-0-0-0--0-0-0--0-0--0-0-0--0-0-0--0-0--|

1.---------------------------------------|
2.---------------------------------------|
3.---------------------------------------|
4.---------------------------------------|
5.---------------------------------------|
6.-0-0-0--0-0-0--0-0-0--0-0--0-0-0--0-0-0

1.---------------------------------------|
2.---------------------------------------|
3.---------------------------------------|
4.-------------7-------------------------|
5.-----------8---8-7---------------------|
6.-0-0---5/6----------0-0--0-1-1-0--0-0--|

1.-------------------------|
2.-------------------------|
3.-------------------------|
4.-------------------------|
5.-------------------------|
6.-0-1-1-0--0-0--0-1-1-0---|...




Cerveza Megadeth.

  Megadeth es sin duda, una de las bandas exponentes, pionera y abanderas del estilo musical y movimiento Thrash Metal. Creada y dirigida por Dave Mustaine un ex-Metallica en 1983 en Los Ángeles, Megadeth ha grabado más de 6 álbumes de estudio, recibido varios discos de platino y de oro y otras tantas nominaciones a los Grammy.  Después de más de 30 años de carrera, interrumpida por problemas de salud de Dave Mustaine y por el itinerante paso por la banda del resto de componentes, Megadeth ha decidido tener su propia cerveza.

  Así es, y lo hace de la mano de Unibroue, cervecera canadiense, cuyo método de elaboración de cerveza  está inspirado en la viejas tradiciones de los cerveceros belgas y europeas, en concreto las de los dos últimos siglos utilizadas por los monjes trapenses. Una cervecera que no por eso ha dejado de ser fiel a sus raíces y su identidad cultural canadiense, más concretamente de Québec. Unibroue es hoy en día, por su estilo y su imagen de marca una de las cerveceras más importantes de Norte America y quizás sea por eso, por lo que el líder de la banda Megadeth, haya elegido la marca para fabricar su propia cerveza.

   "A tout le monde" una cerveza originaria de Chambly, Quebec y elaborada desde 2016. La cerveza tiene 4,5 grados, es de alta fermentación al más puro Saison Ale estilo belga, de sabor ligeramente picante y con notas de frutas tropicales y cítricos en su aroma. Ligeramente astringente con notas de cítricos y frutas tropicales como el mango y lichi. La temperatura recomendada para tomarla está entre  4 ° - 6 ° C y desgraciadamente sólo está disponible en Quebec y los Estados Unidos, en formato de 750 ml  en Quebec y 355 ml en los EE.UU.

   Megadeth ha creado una página para la venta y promoción de la cerveza de la que te dejamos un link, por si quieres saber algo más sobre ésta nueva cerveza en el mundo del metal.

  "A totut le monde" una cerveza que ha hecho entender a Mustaine, que años antes, concretamente en 2014,  ya había comercializado su propio vino, "Symphony" porque bandas como Iron Maiden triunfaban comercializando su propia cerveza y es que todas la previsiones de venta se vieron superadas en los primeros dias de su salida a la luz,  cómo ya avisara la cervecera ante la reciente salida de la cerveza de Megadeth: "Preparaos para vivir una experiencia excepcional."

Tablaturas de Megadeth.

Dystopia. Megadeth.

1.---------------------------------------|
2.--8----6----8----6----8----6----8----6-|
3.---------------------------------------|
4.---------------------------------------|
5.---------------------------------------|
6.---------------------------------------|

1.---------------------------------------|
2.---------------------------------------|
3.--------------------8----7-8-10--7-8---|
4.-10--10-10-10-10-10---10-------------10
5.---------------------------------------|
6.---------------------------------------|

1.---------------------------------------|
2.---------------------------------------|
3.-7----------------7----7-8-10--7-8---7-|
4.---9--9-9-9-9-9-9---9--------------9---8
5.---------------------------------------|
6.---------------------------------------|

1.---------------------------------------|
2.---------------------------------------|
3.-------------8---7-8-10--7-8----7------|
4.-8-8-8-8-8-8---8-------------10---7--7-|
5.---------------------------------------|
6.---------------------------------------|

1.------------------------------------|
2.-------------8----6---4-------------|
3.---------------8----7---5--7---7-5--|
4.-7-7-7-7-7-------------------8------|
5.------------------------------------|
6.------------------------------------|...


Back in the day. Megadeth.




1.------------------------------------

2.------------------------------------

3.------------------------------------

4.-10--8--7--8--7-7--10--8--7--8--7-7-

5.------------------------------------

6.------------------------------------



1.------------------------------------

2.------------------------------------

3.------------------------------------
4.-10--8--7--8--7-7--10--8--7--8--7-7-
5.------------------------------------
6.------------------------------------

(0:37)
1.-------------------------------------------
2.-------------------------------------------
3.-------------------------------------------
4.-7-----------------------7-----------------
5.-5-7--8------------------5--7--8---------10
6.---5--6-6-6-6--6-6--6-6-----5--6-6-6-6-6-8-

1.-------------------------------------------
2.-------------------------------------------
3.-------------------------------------------
4.-7-----------------------7-----------------
5.-5--7--8-----------------5--7--8---------10
6.----5--6-6-6-6--6-6--6-6----5--6-6-6-6-6-8-






                       
 Cerveza Anthrax.
  
  Anthrax, una banda estadounidense de thrash metal, formada en Nueva York en 1981, por el guitarrista Scott Ian y el bajista Dan Lilker y considerada como uno de los grupos principales de la escena thrash junto a Metallica, Megadeth y Slayer. Hasta el 2016 la banda ha publicado once álbumes de estudio y vendido más de 10 millones de discos en todo el mundo. 
 Considerada como una de las bandas que redefinió el heavy metal en los ochenta, Antrhax se hizo famosa por su sonido thrash clásico y sus letras con claras referencias al humor y a los cómics, además de ser de las primeras en fusionar estilos como el rap y el heavy metal.

  Mientras los miembros de la banda comentaban en un bar lo que les gustaría tener su propia cerveza, el dueño del mismo tomaba buena nota y les ponía en contacto con el dueño d Butternuts beer  chucherías williamson, y por lo visto admirador de la formación neoyorquina.


 Cerveza Wardance.

Scott Ian, Charlie Benante y Frank Bello trabajaron codo con codo con Williamson para desarrollar una cerveza con un sabor distintivo pero que a la vez pudiera ser del gusto tanto de la banda como de sus fans, Wardance, una cerveza al estilo pale ale con una mezcla especial de maltas neoyorquinas con otras para darle color y profundidad a su sabor y lúpulo de la zona y de la costa oeste! Además de la ayuda de los comentarios de los fans de la banda que pudieron degustarla sin saberlo en uno de los conciertos que dio la banda, para conseguir una cerveza con un estilo propio! al gual que la banda y con una graduación de 5,5%.



Tablaturas de Anthrax.


Evil twin. Anthrax.

1.-------------------------------------
2.-------------------------------------
3.-------------------------------------
4.--6-7-8--6-7-8--------4h6-7-8--6-7-8-
5.---------------6-6-6-----------------
6.-------------------------------------

1.-----------------------
2.-----------------------
3.-----------------------
4.--3-/6-6--6-7-8--6-7-8-
5.--1-/4-4---------------
6.----------------------...

(0:22)

1.--------------------------------
2.--------------------------------
3.--------------------------------
4.--------------------------------
5.--------------------------------
6.--4-4-4-7-7-2-2-5-5-2-2-5-5-2-4-

1.--------------------------------
2.--------------------------------
3.--------------------------------
4.--------------------------------
5.--------------------------------
6.--4-4-4-7-7-2-2-5-5-2-2-5-5-2-4-

1.--------------------------------
2.--------------------------------
3.--------------------------------
4.--------------------------------
5.--------------------------------
6.--4-4-4-7-7-2-2-5-5-2-2-5-5-2-4-


1.--------------------------------
2.--------------------------------
3.--------------------------------
4.--------------------------------
5.----------------7--7------------
6.--4-4-4-7-7-2-2-5--5--5-5-5-5-5-


1.--------------------------------
2.--------------------------------
3.--------------------------------
4.--------------------------------
5.--------------------------------
6.--4-2-4--5-5-5-5-5-5-4-2-4--5-5-


1.--------------------------------
2.--------------------------------
3.--------------------------------
4.--------------------------------
5.--------------------------------

6.-5-5-5-5-5-5--5-5-5-5-5-7-5-4-5-...



Cerveza slayer.
  
  Durante más de tres décadas,  Slayer ha demostrado ser la banda  exponente supremo de thrash metal junto a nombres como Metallica, Megadeth o Anthrax del planeta.  Realizada por los creadores de la Imperial Pale lager de Motörhead, la Nils Oscar Company de Nyköping, Suecia y bajo el nombre de Slayer 666 red Ale, slayer ya tiene su propia cerveza.


  La red ale 666 de slayer, de origen sueco, se caracteriza, como todas las red ale, por su color, mezcla de cobre y rojizo, ambas tonalidades en su definición más profunda. Es en su equilibrio entre la dulzura de la malta y la mezcla de los lúpulos, El dorado y Mosaico, donde encontramos ese alto sabor amargo, como en todas las cervezas rojas al estilo americano, y su aroma.
  La cerveza de slayer está elaborada al más puro estilo tradicional con 5 maltas de base fuerte, con un carácter e identidad única debido, como no, al lúpulo utilizado en la elaboración.
  Con una graduación de 6,5% Vol la cerveza Slayer es una cerveza, como comentara en su presentación uno de los miembros de la banda Tom Araya: “Sí, una cerveza puede saber a Slayer.”
  La puedes encontrar en botellines de vidrio de 33cl con la etiqueta del logo de la banda Slayer.


Tablaturas de Slayer.


You against you. Slayer.

1.-----------------------------------|
2.-----------------------------------|
3.-----------------------------------|
4.-----------------------------------|
5.-6-6--7-7--4-4--7-7-6--6-6-6-6-6-6-|
6.-----------------------------------|

1.-----------------------------------|
2.-----------------------------------|
3.-----------------------------------|
4.-----------------------------------|
5.-6-6--7-7--4-4--7-7-6--6-6-6-6-6-6-|
6.-----------------------------------|

1.----------------------------------|
2.----------------------------------|
3.----------------------------------|
4.---------------4-4----------------|
5.-6-6--7-7--4-4-----7-7--4-4--7-7-6

6.----------------------------------|...

Repentless. Slayer.


1.-----------------------------------
2.-----------------------------------
3.-----------------------------------
4.-----------------------------------
5.---6-6-6--6-7-9--7h6----6-7--6-7-9-
6.---------------------9--4-5--------

1.----------------------------------
2.----------------------------------
3.----------------------------------
4.----------------------------------
5.--7h6----6-7--6-7-9--7h6----7-7-6-
6.------9--4-5-------------9--5-5-4-...





No hay comentarios:

Publicar un comentario