.

banners

Tabs fácil de...Energy. Joe Satriani.



satriani_tablaturas_energy
  Satriani regresa al panorama musical con el anuncio de su 16º álbum que llevará por título "What happens next" y de próxima gira de su G3 en la que le acompañaran John Petrucci y Phil Collen.

  “La canción Energy muestra el poder, la diversión y la emoción de la química musical verdadera y espontánea”, decía Satriani de "Energy" el tema con el que nos adelanta la presentación de su nueva obra y en la que contará con un grande como Glenn Huges.

  Hoy en tablaturas fáciles queremos dejarte un momento en tablatura del tema con el que Satriani nos presenta su nuevo disco.
  Un saludo.
  TabsFácil.

Energy. Joe Satriani.


1.---------------------------------|
2.---------------------------------|
3.---------------------------------|
4.---------4---4-------------------|
5.-----3-4---6---6--4-6-6--6-6-6-6-6
6.-3/4-----------------------------|

1.---------------------------------|
2.---------------------------------|
3.---------------------------------|
4.-------4---4---------------------|
5.---3-4---6---6--4-6-6--6-6-6-6-6-|
6.-4-------------------------------|

1.---------------------------------|
2.---------------------------------|
3.---------------------------------|
4.-------4---4---------------------|
5.---3-4---6---6--4-6-6--6-6-6-6-6-|
6.-4-------------------------------|

1.---------------------------------|
2.---------------------------------|
3.---------------------------------|
4.-------4---4---------------------|
5.---3-4---6---6--4-6-6--6-6-6-6-6-|


(0:24)

1.----------------------------|
2.-6--4--8-8-8-8--8-8-8--8-8--|
3.-8--6--8-8-8-8--8-8-8--8-8--|
4.-8--6--8-8-8-8--8-8-8--8-8--|
5.-6--4--6-6-6-6--6-6-6--6-6--|
6.----------------------------|

1.----------------------------|
2.-6--4--8-8-8-8--8-8-8--8-8--|
3.-8--6--8-8-8-8--8-8-8--8-8--|
4.-8--6--8-8-8-8--8-8-8--8-8--|
5.-6--4--6-6-6-6--6-6-6--6-6--|
6.----------------------------|

1.----------------------------|
2.-6--4--8-8-8-8--8-8-8--8-8--|
3.-8--6--8-8-8-8--8-8-8--8-8--|
4.-8--6--8-8-8-8--8-8-8--8-8--|
5.-6--4--6-6-6-6--6-6-6--6-6--|
6.----------------------------|

1.-----------------------|
2.-6--4--8-8-8-8--8-8-8--|
3.-8--6--8-8-8-8--8-8-8--|
4.-8--6--8-8-8-8--8-8-8--|
5.-6--4--6-6-6-6--6-6-6--|
6.-----------------------|

(0:34)

1.--------------------------------|
2.-8-9--8-9-8------------------6(8)
3.------------8-8-6---8-8--6------|
4.------------------8--------8----|
5.--------------------------------|
6.--------------------------------|

1.--------------------------------|
2.-8-9--8-9-8---------7-----------|
3.------------8-8-6-----8-6---6---|
4.------------------8-------8---9-|
5.--------------------------------6
6.--------------------------------|




No hay comentarios:

Publicar un comentario