.

banners

Tabs fácil de... Run for covers. The Killers.



tabs facil run for covers


    "Wonderful, wonderful" ese es el nombre que la banda The Killers elegía para su quinto y último trabajo, publicado hace unos días, exactamente el 22 de Septiembre. 
  Nos adelantaron dos singles, el segundo "Run for covers" del que hoy en Tablaturas fáciles te queremos dejar unos momentos en tablatura, para que practiques y disfrutes, si eres de los que les gusta la guitarra indie.
  Un saludo.
 Tabsfácil.



Run for covers. The Killers.


1.---------------------------------|
2.---------------------------------|
3.---------------------------------|
4.---------------------------------|
5.-----------------5-5-5-5-5-5-5-5-|
6.-6-6-6-6-6-6-6-6-----------------|


1.---------------------------------|
2.---------------------------------|
3.---------------------------------|
4.-----------------5-5-5-5-5-5-5-5-|
5.-8-8-8-8-8-8-8-8-----------------|
6.---------------------------------|

1.---------------------------------|
2.---------------------------------|
3.---------------------------------|
4.---------------------------------|
5.-----------------5-5-5-5-5-5-5-5-|
6.-6-6-6-6-6-6-6-6-----------------|


1.------------------------------|
2.------------------6-6-6-/5-6--|
3.------------------------------|
4.------------------------------|
5.-8-8-8-8-8-8-8-8--------------|
6.------------------------------|...


(0:23)

1.--------------5-5-5-5-5---------|
2.-6-6-6-6-6----------------6-6-6-|
3.-----------7------------7-------|
4.--------------------------------|
5.--------------------------------|
6.--------------------------------|


1.--------3-5--3-5--3-5-3---------|
2.-6-6--------------------6-6-6-6-|
3.-----7--------------------------|
4.--------------------------------|
5.--------------------------------|
6.--------------------------------|


1.----------5-5-5-5-5--3-5-3-5-3-5
2.-6-6-6-6------------------------|
3.--------------------------------|
4.--------------------------------|
5.--------------------------------|
6.-----------------------------|...



No hay comentarios:

Publicar un comentario