.

banners

Tabs fácil de... La cantata del diablo. Mägo de Oz.



tablaturas_diabolus in opera


    Después de la extensa y exitosa gira que los Mägo de Oz aún hoy no han acabado, saldrá a la venta, como ellos mismos nos presentaran hace unos días "Diabolus in Opera" una grabación del concierto que dieron en Mexico  el pasado 6 de Mayo, junto a una orquesta sinfónica y en la que desplegaron un gran escenario para la ocasión. Experiencia que quisieron grabar y que también repetirán en España el año próximo.
  No faltan en Tablaturas fáciles los momentos en tablatura de los de la bruja y hoy os queremos dejar esos momentos en tabs del tema que eligieron para presentar el DVD con el que celebran su 30 aniversario y que vendrá plagado de sorpresas, ediciones especiales y extras, "La cantata del diablo" hoy en tablaturas fáciles.
   Un saludo.
   TabsFácil.



La cantata del diablo. Mägo de Oz.


(1:30)  

1.-----------------------------|
2.-----------------------------|
3.-----------------------------|
4.-7---------------------------|
5.-5--5-5--5-5--5-5--5-5--5-5--|...
6.-----------------------------|

    T            T            T
1.-----------------------------|
2.-10-6h5h3h5h6-10-6h5h3h5h6-10
3.-----------------------------|
4.-----------------------------|
5.-----------------------------|
6.-----------------------------|

              T           T
1.-----------------------------------|
2.-6h5h3h5h6-10-6h5h3h5h6-10-6h5h3h5h6
3.-----------------------------------|
4.-----------------------------------|
5.-----------------------------------|
6.-------------------------------|...

(1:52)"En nombre de la única religión..."

1.-------------------------------|
2.-------------------------------|
3.-------------------------------|
4.-7-------------5-7-----------5-|
5.-5-5-5-5-5-5-5-3-5-5-5-5-5-5-3-|
6.-------------------------------|

1.-------------------------------|
2.-------------------------------|
3.-------------------------------|
4.-7-------------5-7---------2-7-|
5.-5-5-5-5-5-5-5-3-5-5-5-5-5-0-5-|
6.-------------------------------|...

(2:35)

1.-------------------------------|
2.-------------------------------|
3.---------------2-------------2-|
4.---------------0-------------0-|
5.-2---------------2-------------|
6.-0-0-0-0-0-0-0---0-0-0-0-0-0---|

1.-------------------------------|
2.-------------------------------|
3.---------------2---------------|
4.---------------0-----------4---|
5.-2---------------2---------2-2-|
6.-0-0-0-0-0-0-0---0-0-0-0-0---0-|...


(4:00)

1.-------------------------------|
2.-----------------8-8-8-6-------|
3.-9-9-7-9-10-9--9---------9-7-9-|
4.-------------------------------|
5.-------------------------------|
6.-------------------------------|

1.-------------------------------|
2.----------------8-6------------|
3.-5---5--/9-9--9-----9-5--/9-7-5
4.---7---------------------------|
5.-------------------------------|
6.-------------------------------|

1.----------|
2.----------|
3.---5------|
4.-9---9-7--|
5.----------|
6.----------|...

(11:23)

1.-------------------------------|
2.-----------------12--13--15--13
3.-----12----14------------------|
4.-/12----12----12---------------|
5.-------------------------------|
6.-------------------------------|

1.-------------------------------|
2.-12----------------------------|
3.-----14--12-14(16)-14h12-------|
4.-------------------------12--/12
5.-------------------------------|
6.-------------------------------|

1.-------------------------------|
2.-------------12--13--12--------|
3.-12----14----------------14-14(16)
4.----12----12-------------------|
5.-------------------------------|
6.-------------------------------|

1.---------------------------|
2.-15-17-20--20(22)--22(24)--|
3.---------------------------|
4.---------------------------|
5.---------------------------|
6.---------------------------|...



No hay comentarios:

Publicar un comentario