.

banners

Tabs fácil de... Into the fire. Asking Alexandria.



asking_alexandria_into_the_fire_tablaturas


   Exitoso reencuentro, después del regreso de Danny Worsnop, entre Asking Alexandria y sus incondicionales, vista la respuesta que éstos han tenido tras la publicación del adelanto de su esperado nuevo trabajo, del que poco sabemos más que saldrá en Diciembre.
  De momento "Into the fire" ya lo podemos escuchar y ver su videoclip y además, aquí en tablaturas fáciles os queremos dejar un pequeño fragmento, un momento en tablatura del tema y su riff principal.
  Un saludo.
  TabsFácil.



Into the fire. Asking Alexandria.


1.-------------------------------|
2.-------------------------------|
3.-------------------------------|
4.-------------------------------|
5.---------7-6-4---6-4-2-----2-4-|
6.-4-4-4-4-------4-------4-4-----|

1.-------------------------------|
2.-------------------------------|
3.-------------------------------|
4.-------------------------------|
5.---------7-6-4---6-4-2-----2-4-|
6.-4-4-4-4-------4-------4-4-----|


1.---------------------------------|
2.---------------------------------|
3.---------------------------------|
4.-----------------------------4-6-|
5.-6-6-6---7-6-4---6-4-2--6-6--2-4-|
6.-4-4-4-4-------4--------4-4------|



(1:10)Estribillo   "...Fire, into the..."

1.-----------------------------|
2.-----------------------------|
3.-----------------------------|
4.-----------------------------|
5.---------------------------2-|
6.-4-4-4-4--4-4-4-4--4-4-4-4---|


1.-----------------------------|
2.-----------------------------|
3.-----------------------------|
4.-----------------------------|
5.---------------------------4-|
6.-0-0-0-0--0-0-0-0--0-0-0-0---|

1.-----------------------------|
2.-----------------------------|
3.-----------------------------|
4.-----------------------------|
5.---------------------------2-|
6.-4-4-4-4--4-4-4-4--4-4-4-4---|


1.-----------------------------|
2.-----------------------------|
3.-----------------------------|
4.-----------------------------|
5.---------------------------4-|
6.-0-0-0-0--0-0-0-0--0-0-0-0---|




No hay comentarios:

Publicar un comentario