.

banners

Tablatura fácil de... Walk the earth. Europe.




  Los mundialmente conocidos Europe vuelven a la carga, el próximo 20 de Octubre saldrá a la luz su última obra, "Walk the Earth", un disco del que ya han recibido muy buenas críticas.

  Aunque en la primera escucha de su tema adelanto, "Walk the earth" ya podemos notarlo, nos lo confirma el batería de la banda, Ian Haugland“Creo que podrás oír influencias de David Bowie, Led Zeppelin, Black Sabbath y Deep Purple”. 

  Y cómo no podía ser de otra manera, en tablaturas fáciles te queremos dejar un momento en tablatura de su tema adelanto, para que disfrutes con tu guitarra.

  Un saludo.
  TabsFácil.




Walk the earth. Europe.


(0:30)
     
1.-------------------------------|
2.-------------------------------|
3.-------------------------------|
4.-7-7-----------7-7--7-7--------|
5.-5-5--5-3-5-5--5-5--5-5--5-3-5-5
6.-------------------------------|

1.-------------------------------|
2.-------------------------------|
3.-------------------------------|
4.-7-7--------7-5h7h5--------7-7-|
5.-5-5--5-7-8---------7-8-5--5-5-|
6.-------------------------------|

1.------------------------------|
2.------------------------------|
3.------------------------------|
4.------------------------------|
5.-5-3-5-5--5-5--5-7-8-5--------|
6.-----------------------8-5-6--|

1.-------------------------------|
2.-------------------------------|
3.-------------------------------|
4.-------------------------------|
5.-8-8-----------8-8--8--7--10-12
6.-6-6--6-5-6-6--6-6--6--5--8--10

1.------|
2.------|
3.------|
4.-7-7--|
5.-5-5--|
6.------|...

(2:49)

1.-------------------------------|
2.-------------------------------|
3.-------------------------------|
4.-------------------------------|
5.-/7-8-10--7-8-10-7-8-10-8-7----|
6.----------------------------10-|

1.-------------------------------|
2.-------------------------------|
3.-10-9-7-------3(5)(5)-2--------2
4.--------5-7-8-----------5-3-3/5
5.-------------------------------|
6.-------------------------------|...



No hay comentarios:

Publicar un comentario