.

banners

Tablatura fácil de... Caín. Tierra Santa.






 "Quinto Elemento" así se llama el nuevo trabajo de Tierra Santa. Un álbum, el undécimo en su carrera, compuesto por diez canciones que certifican el magnífico estado de forma de esta gran banda riojana. 
  Nos presentaban su disco con un single y video, "Caín" del que hoy en Tablaturas fáciles os queremos dejar unos momentos en tablatura para que, como siempre disfrutéis y practiques con la guitarra.
  Un saludo.
  TabsFácil.



Caín. Tierra Santa.


1.----------------------------|
2.----------------------------|
3.----------------------------|
4.-------------------------5--|
5.-2-----------------------3--|
6.-0--0-0-0--0-0-0--0-0-0-----|

1.-----------------------------|
2.-----------------------------|
3.-----------------------------|
4.----------------------7------|
5.----------------------5------|
6.-0-0-0--0-0-0--0-0-0-----0-0-0

1.----------------------|
2.----------------------|
3.----------------------|
4.----------5--4--2-----|
5.----------3--2--0--5--|
6.-0-0-0-0-----------3--|

1.----------------------------|
2.----------------------------|
3.----------------------------|
4.-------------------------5--|
5.-2-----------------------3--|
6.-0--0-0-0--0-0-0--0-0-0-----|

1.-----------------------------|
2.-----------------------------|
3.-----------------------------|
4.----------------------7------|
5.----------------------5------|
6.-0-0-0--0-0-0--0-0-0-----0-0-0

1.-------------------------|
2.-------------------------|
3.-------------------------|
4.----------5--4--2--------|
5.----------3--2--0--5--2--|
6.-0-0-0-0-----------3--0--|...


(0:23) "Cuando...

1.----------------------------|
2.----------------------------|
3.----------------------------|
4.----------------------------|
5.----------------------------|
6.-0-0-0--0-0-0--0-0-0--0-0-0-|

1.----------------------------|
2.----------------------------|
3.----2-----------------------|
4.-7--0-----------------------|
5.-5-----3-2------------------|
6.-----------3-0--0-0-0--0-0-0

1.----------------------------|
2.----------------------------|
3.----------------------------|
4.---------------7--7---------|
5.---------------9--9--3-2----|
6.-0-0-0--0-0-0------------3-0 ...


(3:33)

1.----------------------------|
2.----------11/13-11-9--------|
3.-10-12-13------------12-10--|
4.----------------------------|
5.----------------------------|
6.----------------------------|

1.----------------------------|
2.----------9/11-9------------|
3.-10-12-13--------12--10-12--|
4.----------------------------|
5.----------------------------|
6.----------------------------|

1.----------------------------|
2.----------------------------|
3.-10-12-13--10/12-10--8-10-8-|
4.----------------------------|
5.----------------------------|
6.----------------------------|

1.-------------------|
2.-------------------|
3.-7--8--10--10(12)--|
4.-------------------|
5.-------------------|
6.-------------------|...



No hay comentarios:

Publicar un comentario