.

banners

Las 6 mejores melodías de guitarra.


   


 
  Solemos hacer listas de los grandes riffs de guitarra de todos los tiempos, enumerar los mejores solos de guitarra de la historia, pero poco o nada comentamos de esas melodías, esas que se repiten y repiten a lo largo de una canción, que se convierten en prácticamente himnos y que podemos tararear y canturrear durante horas, además de haber marcado grandes y emotivos momentos de nuestra vida, desde que las oimos por primera vez.

  Pero, de qué depende que se convierta en una melodía inolvidable? Pudiera ser una mezcla o combinación de ingredientes como la selección de las notas que la forman, el ritmo, el tono, incluso los efectos y la guitarra utilizada, entre otros... ¿Por qué no?

  Hacer una lista o enumerar, elegir de entre todas, puede ser más fácil o difícil, pero siempre muy subjetivo, aunque seguro que cuando las reconozcas te identificas con al menos una de esas melodías que, seguramente estaría en tu propia lista. No te digo nada, del tema que la contiene o el guitarrista que la compuso. ¿Por qué 6? ¿Por qué no 10? Comenta y añade las que a ti te falten.



6. Black Star. Yngwie Malmsteen.


1.-----------------14-15-14-------|
2.-17(16)17--16-17----------16-17-|
3.--------------------------------|
4.--------------------------------|
5.--------------------------------|
6.--------------------------------|

1.-19(20)19--14-17-15-14-12-15-14-|
2.--------------------------------|
3.--------------------------------|
4.--------------------------------|
5.--------------------------------|
6.--------------------------------|


1.-12-11-12-14-11-12-|
2.-------------------|
3.-------------------|
4.-------------------|
5.-------------------|
6.-------------------|...


5. For the love of god. Steve Vai.

1.-----------------12/10--7------|
2.-------10--10/12----------8-12-|
3.-----7-------------------------|
4.-7/9---------------------------|
5.-------------------------------|
6.-------------------------------|

1.--------12/10--7---------------|
2.-15/10-----------8-12--15/10---|
3.-------------------------------|
4.-------------------------------|
5.-------------------------------|
6.-------------------------------|

1.-12/10--7----------------------|
2.----------8--10/12--12--12/10--|
3.-------------------------------|
4.-------------------------------|
5.-------------------------------|
6.-------------------------------|

1.----------------|
2.-5/8-7----------|
3.-------9-7--7/9-|
4.----------------|
5.----------------|
6.----------------|...

4. Cliffs of dover. Eric Johnson.

1.-------------------------------|
2.-------------------------------|
3.----------17----14--17/16-----12
4.-14/12/14----14------------12--|
5.-------------------------------|
6.-------------------------------|

1.-------------------------------|
2.-------------------------------|
3.-16/14-----11-14----11-12--14/16
4.--------12-------12------------|
5.-------------------------------|
6.-------------------------------|

1.--------------------------------|
2.--------------------------------|
3.----12-16/14----11-12-11--------|
4.-12----------12----------14-12
5.-------------------------------14
6.--------------------------------|

3. Always with me... Joe Satriani.

1.-------------------------------|
2.---4--5/-7--7/9--7--5--4--5----|
3.-4--------------------------4/6
4.-------------------------------|
5.-------------------------------|
6.-------------------------------|

1.-------------------------------|
2.-------------------------------|
3.-4-6--6/-8--8/9--8--6---------4
4.-----------------------4--4-4--|
5.-------------------------------|
6.-------------------------------|

1.-------------------------------|
2.-------------------------------|
3.-----4/6--6/8--6----4-5-7--7/9-7
4.-4-4--------------4------------|
5.-------------------------------|
6.-------------------------------|

1.----------------|
2.-5--4--2--------|
3.----------2-/4--|
4.----------------|
5.----------------|
6.----------------|

2. Sweet child o' mine. Slash. (Guns n' Roses)

1.--------------15----14---------|
2.----15-----------------------15
3.-------14-12-----14----14------|
4.-12-----------------------12---|
5.-------------------------------|
6.-------------------------------|

1.-------15----14----------------|
2.----------------------15-------|
3.-14-12----14----14-------14-12-|
4.-------------------14----------|
5.-------------------------------|
6.-------------------------------|

1.-15----14----------------15----|
2.----------------15-------------|
3.----14----14-------14-12----14-|
4.-------------14----------------|
5.-------------------------------|
6.-------------------------------|

1.-14-----------------15----14---|
2.-----------15------------------|
3.----14--12----14-12----14----14
4.-------------------------------|
5.-------------------------------|
6.-------------------------------|

1.-------------15----14----|
2.----15-------------------|
3.-12----14-12----14----14-|
4.-------------------------|
5.-------------------------|
6.-------------------------|


1. Layla. Eric Clapton.

1.-------10h13h10----10--13(15)-13
2.-10h13----------13-------------|
3.-------------------------------|
4.-------------------------------|
5.-------------------------------|
6.-------------------------------|

1.-12----10--------10h13h10-----10
2.----13-----10h13-----------13--|
3.-------------------------------|
4.-------------------------------|
5.-------------------------------|
6.-------------------------------|

1.-15(17)-15-12-----10--|
2.---------------13-----|
3.----------------------|
4.----------------------|
5.----------------------|
6.----------------------|

No hay comentarios:

Publicar un comentario