.

banners

Acordes y Tablatura fácil de... Entre dos mares. Fito y Fitipaldis.



acordes_fitografias



    Para celebrar sus 20 años, Fito y fitipaldis regresan, presentando nuevo disco y nueva gira. Un disco recopilatorio con algunas de las mejores canciones de la banda liderada por Fito y muchas colaboraciones, además de un libro, que saldrá a la venta el 10 de Noviembre y, anuncia gira para el año que viene, "20 años, 20 ciudades" con algunas fechas ya confirmadas.
   También nos ha presentado un tema adelanto, un tema que popularizara en su carrera con los "Platero y Tú" en concreto, "Entre dos mares" de su disco "Correos".
  Y como de costumbre en Tablaturas fáciles queremos dejarte unos momentos en tablatura y acordes del tema, para que disfrutes con una de las mejores bandas del momento.
  Un saludo.
  TabsFácil.



Entre dos mares. Fito y Fitipaldis.


1.-2-------------------------------|
2.-3----------------2-2------------|
3.-2----2-----------2-2------------|
4.-0-/4---4-2-0-----2-2----2-------|
5.--------------2-0-0-0-/4---4-2-0-|
6.---------------------------------|

1.-----2-2----5--------------------|
2.-----3-3-/7---7-5-------2-2----5-|
3.-----2-2----------6-4---2-2-/6---|
4.-----0-0--------------7-2-2------|
5.------------------------0-0------|
6.-2-0-----------------------------|

1.-----------2-2--|
2.-----------3-3--|
3.-6-4-------2-2--|
4.-----7-4---0-0--|
5.---------7------|
6.----------------|

     Re
  No puedo concebir que tu seas tan idiota.

     La
  El triunfo del poder siempre es una derrota

     Re
  y te has quedao colgao y la verdad es otra.

     La
  El mundo es de papel y con papel se compra.

     Re
  Si no me gusta asi tiro de la cadena,

     La
  no sufro por llegar. Se que nadie me espera.

     Re
  Tantos homenajes por personajes muertos,

     La                                
  primero el puñetazo, luego el monumento.

  Sim                        Sol                     Re
  Perdido entre dos mares, sin viento sin bandera.

                     La                
  No quiero escaparates, quiero la vida entera.

  Sim                        Sol                    
  Soy un bufón errante buscando una princesa...

Re La Re La...

(1:21)

1.-------------------------------|
2.------7(8)(7)-5-7--(7)(7)(5)---|
3.-----------------------------7-|
4.-7-7---------------------------|
5.-------------------------------|
6.-------------------------------|

1.-------------------------------|
2.-5--7(8)(7)-5-7--17(19)-17(19)-|
3.-------------------------------|
4.-------------------------------|
5.-------------------------------|
6.-------------------------------|

1.-----------|
2.-17-15-17--|
3.-----------|
4.-----------|
5.-----------|
6.-----------|...

No hay comentarios:

Publicar un comentario