.

banners

Tabs fácil de... Way of the warrior. Ensiferum.





   Los amantes del folk metal y seguidores de la banda Ensiferum están de enhorabuena, la banda finlandesa ha anunciado nuevo disco para mediados de Septiembre, que llevará por título: "Two paths".
  La banda ya tiene tema adelanto, "Way of the warrior" y aquí en Tablaturas fáciles queremos dejarte un momento en tablatura para que lo disfrutes y practiques con la guitarra.
  Un saludo.
  TabsFácil.




Way of the warrior. Ensiferum.


1.-----------------------------|
2.-----------------------------|
3.-----------------------------|
4.-----------------5-5---------|
5.-10//--5-8-7-8-5-----8-7-5-5-|
6.-----------------------------|

1.-----------------------------|
2.-----------------------------|
3.-----------------------------|
4.-7-7-7--7-7-7--7--7-7--------|
5.-5-5-5--5-5-5--5--5-5--5-8-7-8
6.-----------------------------|

1.-----------------------------|
2.-----------------------------|
3.-----------------------------|
4.-5-5--------7-7-7--7-7-7--7--|
5.-----8-7-5--5-5-5--5-5-5--5--|
6.-----------------------------|

1.------|
2.------|
3.------|
4.-7-7--|
5.-5-5--|
6.------|...


(0:19)

1.-----------------------------|
2.-----------------------------|
3.-----------------------------|
4.------------5-5--------------|
5.-5--8h7h8-5-----8-7-5--5--8-7
6.-----------------------------|

1.-----------------------------|
2.-----------------------------|
3.-------------------------5---|
4.-----5-5-------7-7-7-7-7---8-|
5.-8-5-----8-7-5---------------|
6.-----------------------------|

1.-----------------------------|
2.-----------------------------|
3.-----------------------------|
4.-8-8-8-8--7-5-7-7--7-5-------|
5.-----------------------8-7---|
6.-----------------------------|

1.-----------------------------|
2.-----------------------------|
3.-----------------------------|
4.-7-7-7-7-7--5-7-8-8-8-8--7-5-|
5.-----------------------------|
6.-----------------------------|

1.------------------|
2.------------------|
3.------------------|
4.-7--5---5---------|
5.------8------7-5--|
6.-----------8------|...







No hay comentarios:

Publicar un comentario