.

banners

Tabs fácil de... The sin and the sentence. Trivium.




  Trivium nos presenta un nuevo tema "The sin and the sentence" con videoclip incluido y aunque todos suponemos que el tema pertenece a lo que será su 8º álbum, la banda todavía no ha anunciado nada al respecto.
  De momento puedes disfrutar del tema en diversas plataformas digitales, y cómo no, aquí en tablaturas fáciles puedes practicar y divertirte al más puro estilo Trivium con un momento en tablatura de su último tema.
   Trivium en Tablaturas fáciles.
  Un saludo.
  TabsFáciles.





The sin and the sentence. Trivium.


(3:29) Guit. 1.

1.---------------------------------|
2.---------------------------------|
3.---------------------------------|
4.---8---9----6---8----4-3-4/6-4-3-|
5.-6---9----4---8----2-------------|
6.---------------------------------|

1.---------------------------------|
2.---------------------------------|
3.---------------------------------|
4.---------------------------------|
5.-1-2-4-2--1-2-1--1-2-4-2--1-2-1--|
6.---------------------------------|

1.---------------------------------|
2.---------------------------------|
3.---------------------------------|
4.---8---9----6---8----4-3-4/6-4-3-|
5.-6---9----4---8----2-------------|
6.---------------------------------|

1.--------------------------|
2.--------------------------|
3.--------------------------|
4.--------------------------|
5.-1-2-4-2--1-2-1--1-2-4-2--|
6.--------------------------|...


(3:29) Guit. 2.

1.---------------------------------|
2.---------------------------------|
3.-15-13-15----15-13-15----13-11-13
4.----------16----------15---------|
5.---------------------------------|
6.---------------------------------|

1.---------------------------------|
2.---------------------------------|
3.----13-11-13----11-10-11----11-10
4.-15----------13----------13------|
5.---------------------------------|
6.---------------------------------|

1.---------------------------------|
2.---------------------------------|
3.-11------------------------------|
4.----12-13-13/15-13--12-13-12--12-|
5.---------------------------------|
6.---------------------------------|

1.-----------------------|
2.-----------------------|
3.-----------------------|
4.-13-13/15-13--12-13-12-|
5.-----------------------|
6.-----------------------|...



No hay comentarios:

Publicar un comentario