.

banners

Tabs fácil de... The may queen. Robert Plant.





        El 13 de Octubre, verá la luz un nuevo álbum del vocalista de Led Zeppelin, Robert Plant, callando los rumores que corrían por los medios, de la posible reunión de los componentes de la mítica banda.
   El álbum llevará por título "Carry fire" cómo uno de los temas que completan el disco y, mientras esperamos, ya tenemos tema adelanto, "The may queen" del que en tablaturas fáciles os hemos querido dejar un momento en tablatura para que disfrutéis con vuestro instrumento.
   Un saludo.
   TabsFácil.




The may queen. Robert Plant.


1.---------------------------------|
2.-3(4)------3(4)------3(4)--------|
3.------2-5-------2-5-------2-5--5-|
4.---------------------------------|
5.---------------------------------|
6.---------------------------------|

1.---------------------------------|
2.------3(4)--------------3(4)-----|
3.-2-5-------2-5--5--2-5-------2-5-|
4.---------------------------------|
5.---------------------------------|
6.---------------------------------|

1.---------------------------------|
2.---------1-1-1-1-1--0-1-1-1-1--0-1
3.-5--2-5--0-0-0-0-0--0-0-0-0-0--0-0
4.---------2-2-2-2-2--2-2-2-2-2--2-2
5.---------3-3-3-3-3--3-3-3-3-3--3-3
6.---------------------------------|

1.--------|
2.-1-1-1--|
3.-0-0-0--|
4.-2-2-2--|
5.-3-3-3--|
6.--------|...







No hay comentarios:

Publicar un comentario