.

banners

Tabs fácil de... The blackout. U2.




  Tanto U2 como diferentes medios nos confirmaban que tardarían un año en sacar nuevo trabajo, pero han pasado ya tres, y aunque no es ningún adelanto o sencillo, la banda irlandesa nos presentaba hace unos días un tema que irá incluido en su ya inminente próximo trabajo. "Songs of experience" llevará por título y aún no tiene fecha de salida.
  Mientras tanto podemos disfrutar de "The blackout" tanto de la escucha, cómo si te gusta y te animas de un momento en tablatura que aquí en Tabs fáciles te presentamos.
  Un saludo.
  TabsFácil.




The blackout. U2.

(0:26)*Tiempos del vídeo.

1.-/5--5h3--5----/5--5--5h3--5----|
2.------------5----------------5--|
3.--------------------------------|
4.--------------------------------|
5.--------------------------------|
6.-----------------------------|...

(1:36)

1.-5--5-5-5--5-5-5--3-5-3--5--5-5-5
2.--------------------------------|
3.--------------------------------|
4.--------------------------------|
5.--------------------------------|
6.--------------------------------|

1.-5-5-5--3-5-3--5--5-5-5--5-5-5--|
2.--------------------------------|
3.--------------------------------|
4.--------------------------------|
5.--------------------------------|
6.--------------------------------|

1.-3-5-3--5/7\5---|
2.--------------5-|
3.----------------|
4.----------------|
5.----------------|
6.----------------|

1.-5--5-5-5--5-5-5--3-5-3--5--5-5-5
2.--------------------------------|
3.--------------------------------|
4.--------------------------------|
5.--------------------------------|
6.--------------------------------|

1.-5-5-5--3-5-3--5--5-5-5--5-5-5--|
2.--------------------------------|
3.--------------------------------|
4.--------------------------------|
5.--------------------------------|
6.--------------------------------|

1.-3-5-3--5/7\5---|
2.--------------5-|
3.----------------|
4.----------------|
5.----------------|
6.----------------|...







No hay comentarios:

Publicar un comentario