.

banners

Tabs fácil de... All the pretty girls. The Darkness.





   El 6 de Octubre sale a la venta un nuevo disco de la banda británica, The Darkness. Llevará por título "Pinewood Smile" con "algunas de las canciones más agudas, infecciosas, humorísticas y francamente brillantes de toda su carrera" o al menos eso es lo que nos cuentan ellos a través de la nota de prensa de presentación. De momento, ya podemos disfrutar de un tema adelanto: "All the pretty girls" y aquí en Tabs Fáciles te queremos dejar un momento en tablatura del tema, ese riff de inicio tan característico de The Darkness.
  Un saludo.
  TabsFácil.



All the pretty girls. The Darkness.


1.-----------------------------|
2.-----------------------------|
3.-----------------------------|
4.------------------5--2-------|
5.-//----0---0---0--5--2-----0-|
6.-----3---3---3----3--0--3----|

1.-----------------|
2.-----------3-----|
3.-----------2-----|
4.-----------0--2--|
5.---0----0-----2--|
6.-3----3-------0--|

1.-----------------------------|
2.-----------------------------|
3.-----------------------------|
4.--------------5--2-----------|
5.---0---0---0--5--2----0----0-|
6.-3---3---3----3--0--3----3---|

1.-------------|
2.-------3-----|
3.-------2-----|
4.-------0--2--|
5.-0--------2--|
6.-3--------0--|...





No hay comentarios:

Publicar un comentario