.

banners

Tablatura fácil de... Paranormal. Alice Cooper.



paranormal_tablatura_alice_cooper

 Manteniendo la tradición, Alice Cooper ha vuelto, con 7 décadas de vida, millones de discos vendidos, además de haberse convertido en un símbolo del rock tanto por su atuendo como por sus aportaciones al mundo del rock, ALICE COOPER, no tiene intenciones,  de poner fin a su gloriosa carrera en el rock y está de vuelta con “Paranormal”, su vigésimo séptimo LP.
   Y nuestro pequeño homenaje desde Tablaturas fáciles, os dejamos un momento en tablatura del tema que da título a su último trabajo, "Paranormal" para que lo disfrutes con la guitarra.
  Un saludo.
  TabsFácil.


   

 Paranormal. Alice Cooper.


1.---------------------------------|
2.-------1-3h1-----------1-3h1-----|
3.-----2-------2-------2-------2---|
4.---2-----------2---2-----------2-|
5.-0---------------0---------------|
6.---------------------------------|

1.------------|
2.------------|
3.------------|
4.-----5------|
5.-3---3---5--|
6.-1-------3--|

Guitarra 2.

1.------------|
2.--8(10)-8---|
3.----------7-|
4.------------|
5.------------|
6.------------|

1.---------------------------------|
2.-------1-3h1-----------1-3h1-----|
3.-----2-------2-------2-------2---|
4.---2-----------2---2-----------2-|
5.-0---------------0---------------|
6.---------------------------------|

1.--------------------------|
2.--------------------------|
3.--------------------------|
4.-5---------------------7--|
5.-3----------5----------5--|
6.------------3-------------|

Guitarra 2.

1.---------------------------|
2.-12(13)-12--12(13)(12)-10--|
3.---------------------------|
4.---------------------------|
5.---------------------------|
6.---------------------------|


1.---------------------------------|
2.-------1-3h1-----------1-3h1-----|
3.-----2-------2-------2-------2---|
4.---2-----------2---2-----------2-|
5.-0---------------0---------------|
6.---------------------------------|

1.------------|
2.------------|
3.------------|
4.-----5------|
5.-3---3---5--|
6.-1-------3--|

Guitarra 2.

1.------------|
2.--8(10)-8---|
3.----------7-|
4.------------|
5.------------|
6.------------|

1.---------------------------------|
2.-------1-3h1-----------1-3h1-----|
3.-----2-------2-------2-------2---|
4.---2-----------2---2-----------2-|
5.-0---------------0---------------|
6.---------------------------------|

1.---------------------------------|
2.---------------------------------|
3.---------------------------------|
4.-5-----------------------------4-|
5.-3----------5----------3-------2-|
6.------------3----------1---------|

Guitarra 2.

1.---------------------------|
2.-12(13)-12--12(13)(12)-10--|
3.---------------------------|
4.---------------------------|
5.---------------------------|
6.---------------------------|


(0:52)

1.---------------------------------|
2.---------------------------------|
3.---4---4---4---4---4---4---4---4-|
4.-2---2---2---2---2---2---2---2---|
5.---------------------------------|
6.---------------------------------|

1.---------------------------------|
2.---------------------------------|
3.---2---2---2---2---2---2---2---2-|
4.-0---0---0---0---0---0---0---0---|
5.---------------------------------|
6.---------------------------------|

1.---------------------------------|
2.---------------------------------|
3.---4---4---4---4---4---4---4---4-|
4.-2---2---2---2---2---2---2---2---|
5.---------------------------------|
6.---------------------------|...


(1:10)

1.-------------------------|
2.-------------------------|
3.-------------------------|
4.-7-------4-----7-------5-|
5.-5---7---2-----5---7---3-|
6.-----5-------------5-----|...

No hay comentarios:

Publicar un comentario