.

banners

Tabs fácil de... Koolaid. Accept.




   "Koolaid" es uno de los temas con los que la banda alemana Accept presentaba su decimoquinto álbum, "The rise of chaos" publicado recientemente y en el que incorporaban nuevas caras a la batería y a una de las guitarras. 
  Un tema, "Koolaid" que desde la primera escucha te recuerda a los Accept de toda la vida.
  En Tablaturas fáciles queremos dejarte como viene siendo habitual unos momentos en tablatura del tema para que disfrutes y practiques con la guitarra.
  Un saludo.
  TabsFácil.



Koolaid. Accept.



1.-------------------------------|
2.-3-0-0-3-0-0-3-0-5-0-0-5-0-0-5-|
3.-------------------------------|
4.-------------------------------|
5.-------------------------------|
6.-------------------------------|

1.---------------------------------|
2.-0-3-0-0-3-0-0-3-0-2-0---2-0---2-0
3.-----------------------3-----3---|
4.---------------------------------|
5.---------------------------------|
6.---------------------------------|

1.-------------------------------|
2.-3-0-0-3-0-0-3-0-5-0-0-5-0-0-5-|
3.-------------------------------|
4.-------------------------------|
5.-------------------------------|
6.-------------------------------|

1.-------------------------------|
2.-0-3-0-0-3-0-0-3-0-2-----------|
3.-------------------------------|
4.-----------------------4--2--4-|
5.-----------------------2--0--2-|
6.----------------------------|...


(0:22)

1.-------------------------|
2.-------------------------|
3.--------------------2----|
4.-4--2--4---------2--0--4-|
5.-2--0--2------4--0-----2-|
6.----------0-0-2----------|


(0:29)

1.---------------------------------|
2.-7-0-0-7-0-0-7-0-8-0-0-8-0-0-8-0-7
3.---------------------------------|
4.---------------------------------|
5.---------------------------------|
6.---------------------------------|

1.---------------------------------|
2.-0-0-7-0-0-7-0-5-0-0-5-0-0-5-0-0-7
3.---------------------------------|
4.---------------------------------|
5.---------------------------------|
6.---------------------------------|

1.---------------------------------|
2.-0-0-7-0-0-7-0-8-0-0-8-0-0-8-0-7-|
3.---------------------------------|
4.---------------------------------|
5.---------------------------------|
6.---------------------------------|

1.------------------|
2.-0-0-7-0-0-7-0-5--|
3.------------------|
4.------------------|
5.------------------|
6.------------------|...



No hay comentarios:

Publicar un comentario