.

banners

Tabs fácil de... All I can think about is you. Coldplay.





  Coldplay regresa y lanza "All I Can Think About Is You", single que forma parte de su próximo EP, Kaleidoscope. La banda no deja de lado su característico sonido con el que conquistara el mundo musical hace unos años.

 "All I Can Think About Is You" forma parte de Kaleidoscope, EP que saldrá a la venta el 14 de julio en formato digital y el 4 de agosto en físico.

  En Tablaturas fáciles queremos dejarte un momento en tablatura del tema para que lo disfrutes y practiques con tu guitarra.

  Un saludo.
  TabsFácil.



All I can think about is you. Coldplay.


(1:45)

1.-----------12-----------12--12-|
2.-13-----15----13-----15--------|
3.-----14-----------14-----------|
4.-------------------------------|
5.-------------------------------|
6.-------------------------------|

1.--------13h12---------------------|
2.-15-13--------15-13--------13----13
3.---------------------12h14----14--|
4.---------------------12-----------|
5.----------------------------------|
6.----------------------------------|


(3:35)

1.--------------------------------|
2.-13h11-13h11----11--13(15)(13)-11
3.-------------12-----------------|
4.--------------------------------|
5.--------------------------------|
6.--------------------------------|

1.--------------------|
2.----11--------10-10-|
3.-12----12-10--10-10-|
4.--------------------|
5.--------------------|
6.--------------------|...



No hay comentarios:

Publicar un comentario