.

banners

Tablatura fácil de... Despacito. Luis Fonsi ft. Daddy Yankee.




   "Despacito" era el primer sencillo del último trabajo de Luis Fonsi, en el que colaboraba Daddy Yankee y que desde su salida al mercado no para de batir récords. 
   La hemos escuchado en todos sitios, hemos aprendido sus acordes para tocarla y cantarla, incluso se han hecho versiones, adaptaciones y covers para tocarla con otros instrumentos.
   En TabsFácil.es queremos ponértelo fácil si eres de los que te gustaría tocar la canción y te queremos dejar un cover en tablatura, para que toques de una manera diferente, una de esas canciones que sin duda marcarán este año.
  Un saludo.
  TabsFácil.



Despacito. Luis Fonsi ft. Daddy Yankee.


1.-----------------------------|
2.-------------5-3-2-------3-3-|
3.-/4----4-6-7-------4-2-0-----|
4.-----4-----------------------|
5.-----------------------------|
6.-----------------------------|

1.----------------------|
2.-3----3---3---3-3/5-2-|
3.---2----2---2---------|
4.----------------------|
5.----------------------|
6.----------------------|

1.---------------------------------|
2.-------------5-3-2-------3-3/5-3-|
3.-/4----4-6-7-------4-2-0---------|
4.-----4---------------------------|
5.---------------------------------|
6.---------------------------------|

1.----------------------|
2.-3----3---3---3-3/5-2-|
3.---2----2---2---------|
4.----------------------|
5.----------------------|
6.----------------------|


1.-------------------------|
2.-------------------------|
3.-4--4-6--4-6-7-6-7-6-7-4-|
4.-------------------------|
5.-------------------------|
6.-------------------------|

1.------------------------|
2.------------------------|
3.-4-6--4-6-7-6-7-6-7-9-7-|
4.------------------------|
5.------------------------|
6.------------------------|

1.-------------------------|
2.-------------------------|
3.---------7---7----7-9-6--|
4.-7-7-7-7---7---7---------|
5.-------------------------|
6.-------------------------|

1.------------------------------|
2.----2-------------------------|
3.-/4---4--4-6--4-6-7-6-7-6-7-4-|
4.------------------------------|
5.------------------------------|
6.------------------------------|

1.----------------------|
2.----------------------|
3.-4-6--4-6-7-6-7-6-7-9-|
4.----------------------|
5.----------------------|
6.----------------------|

1.----------------------------|
2.----------------------------|
3.------------7---7----7-9-6--|
4.-7--7-7-7-7---7---7---------|
5.----------------------------|
6.----------------------------|

1.-------------------------------|
2.-------------------------------|
3.-/7-6-4--------------4-4--4-2-4
4.--------4--4-4-4-4-4-----------|
5.-------------------------------|
6.-------------------------------|

1.--------------------------------|
2.--------------------------------|
3.-2-4--------------4-4-4-6-7-6-7-|
4.-----5--5-5-5-5-5---------------7
5.--------------------------------|
6.--------------------------------|

1.-------------------|
2.-------------------|
3.---------7---7-9-6-|
4.-7-7-7-7---7-------|
5.-------------------|
6.-------------------|

1.-------------------------------|
2.-------------------------------|
3.-/7-6-4--------------4-4--4-2-4
4.--------4--4-4-4-4-4-----------|
5.-------------------------------|
6.-------------------------------|

1.--------------------------------|
2.--------------------------------|
3.-2-4--------------4-4-4-6-7-6-7-|
4.-----5--5-5-5-5-5---------------7
5.--------------------------------|
6.--------------------------------|

1.-------------------|
2.-------------------|
3.---------7---7-9-6-|
4.-7-7-7-7---7-------|
5.-------------------|
6.-------------------|

1.-------------------------------|
2.-7-5-7-5-7--5-7--5-7-5-7-8-8---|
3.-----------------------------7-|
4.-------------------------------|
5.-------------------------------|
6.-------------------------------|

1.---------5--------------5------|
2.-7-8-7-8---8-8-7--7-7-7---8-7-5
3.-------------------------------|
4.-------------------------------|
5.-------------------------------|
6.-------------------------------|

1.-------------------------------|
2.-7-5-7-5-7--5-7--5-7-5-7-8-8---|
3.-----------------------------7-|
4.-------------------------------|
5.-------------------------------|
6.-------------------------------|

1.---------5--------------5------|
2.-7-8-7-8---8-8-7--7-7-7---8-7-5
3.-------------------------------|
4.-------------------------------|
5.-------------------------------|
6.----------------------------|...





No hay comentarios:

Publicar un comentario