.

banners

Tablatura fácil de... Defying gravity. Mr. Big.




   En este ir y venir de bandas de antaño regresando al panorama musical, Mr. Big nos presenta nuevo disco,  grabado en seis días, su noveno álbum de estudio, con una nueva gira mundial de presentación. Los miembros originales Eric Martin (vocalista), Paul Gilbert (guitarras), Billy Sheehan (bajo) y Pat Torpey (batería) se reunieron con el productor Kevin Elson, debiendo ser ayudados por Matt Starr reemplazando a Torpey, debido a su enfermedad de Parkinson.
  En tablaturas fáciles no podía faltar un momento en tablatura de una de las bandas en las que Paul Gilbert nos deleita con su guitarra, sin menospreciar a Billy Sheehan y el resto de virtuosos.
  Un saludo.
  TabsFácil.


Defying gravity. Mr. Big.


1.----------11--------14--11-12
2.-11-12-14-----12-14----------|
3.-----------------------------|
4.-----------------------------|
5.-----------------------------|
6.-----------------------------|

1.-11------------------11------|
2.----12-14--11--12-14----12-14
3.-----------------------------|
4.-----------------------------|
5.-----------------------------|
6.-----------------------------|

1.-14--11-12--11-------|
2.---------------12-14-|
3.---------------------|
4.---------------------|
5.---------------------|
6.---------------------|...


(0:27)

1.----------14--11-12--9-11-9------|
2.-11-12-14-------------------12-11
3.---------------------------------|
4.---------------------------------|
5.---------------------------------|
6.---------------------------------|

(0:34)

1.----------14-11-12-9-11-9---------|
2.-11-12-14-----------------11(12)(11)
3.----------------------------------|
4.----------------------------------|
5.----------------------------------|
6.----------------------------------|






No hay comentarios:

Publicar un comentario