.

banners

Tablatura fácil de... Collide. Black Country Communion.







    Ya está todo listo para que la gran banda de rock Black Country Communion, nos presente su próximo trabajo. Llevará por título "BCCIV" y saldrá a la luz en Septiembre, más concretamente el 22 de ese mes.
   Portada, tracking list, y single adelanto, en concreto el tema que abre el disco "Collide" del que ya podemos disfrutar y en el que hemos querido desde Tablaturas fáciles dejaros un momento en tablatura para disfrute de los que os gusten las guitarras de Joe Bonamassa, acompañadas de una de las mejores voces del rock, nada más y nada menos que Glenn Hughes.
  Un saludo.
  TabsFácil.






Collide. Black Country Communion.


1.----------------------------|
2.----------------------------|
3.-/8-6-----------------------|
4.------8-----6-4-6-4---6-4---|
5.--------9-----------6-----6-|
6.----------------------------|

1.----------------------7-|
2.----------------------7-|
3.-/8-6-----------------8-|
4.------8-----6-4-6-4---8-|
5.--------9-----------6-6-|
6.------------------------|

1.----------------------------|
2.----------------------------|
3.-/8-6-----------------------|
4.------8-----6-4-6-4---6-4---|
5.--------9-----------6-----6-|
6.----------------------------|

1.----------------------7-|
2.----------------------7-|
3.-/8-6-----------------8-|
4.------8-----6-4-6-4---8-|
5.--------9-----------6-6-|
6.------------------------|...


(0:54)

1.----------------------------|
2.-/9-7-----------------------|
3.------8-----6-4-6-4---6-4---|
4.--------9-----------6-----6-|
5.----------------------------|
6.----------------------------|

1.----------------------------4-|
2.-/9-7-----------------------4-|
3.------8-----6-4-6-4---6-4---5-|
4.--------9-----------6-----6-6-|
5.------------------------------|
6.---------------------------|...



No hay comentarios:

Publicar un comentario