.

banners

Tablatura de... La caja de trucos de Eugene. Steve Vai. (B.S.O. Crossroads).





  Todos hemos oído hablar de una u otra manera, de cómo el ser humano vendía su alma al diablo a cambio de conseguir una habilidad excepcional y por supuesto, el éxito.
  En el mundo de la guitarra también existe, un guitarrista de blues, Robert Johnson, pasó de la noche a la mañana de ser un mediocre guitarrista de blues a tocar de una manera mágica la guitarra y fue por eso, por lo que comenzó a correr el rumor entre el público de que había vendido su alma al diablo, en un cruce de caminos.
  En un homenaje al músico y la historia del cruce de caminos, en 1986 se estrena Crossroads protagonizada por Ralph Macchio, en la que interpreta a Eugene, un guitarrista apasionado del blues que busca la canción número 30 de Johnson, junto a un viejo bluesman, Blind dog, que toca la armónica y pactó con el diablo de manera similar a la del guitarrista de blues...
  Al final de la película, el joven Eugene se enfrenta en un duelo guitarrista o con Jack Butler, interpretado por un jovencísimo Steve Vai, destapando la caja de trucos de Eugene, "Eugene's trick bag" para salvar el alma del anciano armonicista.
 Por lo visto, no existen grabaciones del tema, debido a que no entró en la banda sonora original de la película, aunque sí podemos disfrutar de él gracias a la película y a los numerosos cortes que existen en YouTube, así que busca la escena y con la tablatura que te dejamos a continuación, disfruta y toca uno de los temas más épicos y guitarreros compuestos para el cine.
   Hoy, en Tablaturas fáciles,  "La caja de trucos de Eugene"
   Un saludo.
   TabsFácil.




La caja de trucos de Eugene. Steve Vai. (B.S.O. Crossroads).


1.----------------------------------|
2.----------------------------------|
3.-2h4h2h5h2h4h2h5h2h4h2h5h2h4h2h5h2
4.----------------------------------|
5.----------------------------------|
6.------------------------------|...

1.----------------8-12-8------------|
2.-------------10--------10---------|
3.---------5-9--------------9-5-----|
4.-------7----------------------7---|
5.-----7----------------------------|
6.-5h8----------------------------5h8

1.----------------------------------|
2.---------------9-12-9-------------|
3.-----------7-9--------9-7---------|
4.-------6-9----------------9-6-----|
5.---5-7------------------------7-5-|
6.-7--------------------------------|

1.------------------------------------|
2.-----------------8-10-8-------------|
3.---------------9--------9-----------|
4.----------7-11------------11-7------|
5.-----7-10----------------------10-7-|
6.-5h9--------------------------------9

1.------------------10-13-10-------|
2.---------------10----------10----|
3.----------7-10----------------10-7
4.--------7------------------------|
5.------8--------------------------|
6.-5h10----------------------------|

1.---------------------------------|
2.------------------------------12-|
3.------------------------10-13----|
4.-7-----------------9h12----------|
5.---8----------8h11---------------|
6.-----10--7h10--------------------|

1.---------------------------------|
2.---------------------------------|
3.-13-10-------------------------5-|
4.-------12-9----------------7-----7
5.------------11-8-------7-----7---|
6.-----------------10--5---8-------|

1.------5----8-5-12-8-16-----|
2.-5------5------------------|
3.---5-----------------------|
4.---------------------------|
5.---------------------------|
6.-------------------------0-|

1.----------------------------17-15-|
2.----13-17-13----15-17-15-13-------|
3.-14----------16-------------------|
4.----------------------------------|
5.----------------------------------|
6.----------------------------------|

1.-13-------------|
2.----17-15-13----|
3.-------------16-|
4.----------------|
5.----------------|
6.----------------|

1.----------------------------17-15-|
2.----13-17-13----15-17-15-13-------|
3.-14----------16-------------------|
4.----------------------------------|
5.----------------------------------|
6.----------------------------------|

1.-13-------------|
2.----17-15-13----|
3.-------------16-|
4.----------------|
5.----------------|

6.----------------|

1.-------------17-15-13----------19-|
2.----14-17-14----------17-14-15----|
3.-14-------------------------------|
4.----------------------------------|
5.----------------------------------|
6.----------------------------------|

1.-17-15----------------------------|
2.-------18-17-15-------15----18-17-|
3.-------------------16----16-------|
4.----------------17----------------|
5.----------------------------------|
6.----------------------------------|

1.-----------17-15-13---------------|
2.-15-----------------17-15-13------|
3.----16-17--------------------16-15
4.----------------------------------|
5.----------------------------------|
6.----------------------------------|

1.----------------------------------|
2.----------18-17-15----------18-15-|
3.-14-17-14----------17-13-16-------|
4.----------------------------------|
5.----------------------------------|
6.----------------------------------|

1.-------17-------16-------14-------|
2.----------16--17---17-15----15-14-|
3.-17-14----------------------------|
4.----------------------------------|
5.----------------------------------|
6.----------------------------------|

1.-12-------10-------9------7-----5-|
2.----14-12----12-10---10-9---9-7---|
3.----------------------------------|
4.----------------------------------|
5.----------------------------------|
6.----------------------------------|

1.-----4---|
2.-7-5---5-|
3.---------|
4.---------|
5.---------|
6.---------|

1.-7-4---0-7-4---0-7-4---0-7-4---0-|
2.-----5-------5-------5-------5---|
3.---------------------------------|
4.---------------------------------|
5.---------------------------------|
6.---------------------------------|

1.-7-4---0-7-4---0-7-4---0-7-4---0-|
2.-----5-------5-------5-------5---|
3.---------------------------------|
4.---------------------------------|
5.---------------------------------|
6.---------------------------------|

1.-7-4---0-14-11----0-17-14----0-12
2.-----5---------12---------15-----|
3.---------------------------------|
4.---------------------------------|
5.---------------------------------|
6.---------------------------------|

1.-9----0-|
2.---10---|
3.--------|
4.--------|
5.--------|
6.--------|

1.-7-4---0-14-11----0-17-14----0-12
2.-----5---------12---------15-----|
3.---------------------------------|
4.---------------------------------|
5.---------------------------------|
6.---------------------------------|

1.-9----0-|
2.---10---|
3.--------|
4.--------|
5.--------|
6.--------|...



1 comentario:

  1. Creo que ahora necesitamos la de Butler, para enfrentarnos entre 2 amigos

    ResponderEliminar