.

banners

Tabs fácil de... Open Sesame. Edguy.


  "Amigos, es nuestro 25º aniversario este año. ¡Veinticinco años de EDGUY! Y ahora estamos trabajando en un gran lanzamiento de un triple disco, que contiene cosas nuevas, cosas viejas, el mejor material que tenemos, abrazando nuestra historia, desvelando material inédito de tiempos olvidados y, por si esto no fuera suficiente, como bonus, un DVD con nuestros vídeos y un show completo en directo..."

  Hace unos días nos presentaban liderados como siempre por Tobias Sammet, un nuevo trabajo para celebrar sus 25 años de trayectoria, un CD/DVD recopilatorio y con algunos temas nuevos. En Tablaturas fáciles queremos dejarte un pequeño momento en tablatura correspondiente al tema "Open Sesame" o "Ábrete Sésamo" con el que queremos que paséis un buen rato con la guitarra.
  Un saludo.
  TabsFácil.




Open Sesame. Edguy.


1.--------------------------------|
2.--------------------------------|
3.----3-----5-----3-----5-----3-2-|
4.-//---5-5---5-5---5-5---5-5-----|
5.--------------------------------|
6.--------------------------------|

1.------------------------------|
2.------------------------------|
3.--3-----5-----3-----5-----3-2-|
4.----5-5---5-5---5-5---5-5-----|
5.------------------------------|
6.------------------------------|

1.---------------------------------|
2.(HH)--------------------4--3h4h3h1
3.-/3-2------/3-2-------3----------|
4.------3---------3-1-3------------|
5.--------3------------------------|
6.---------------------------------|

1.---------------|
2.---------------|
3.-3h5h3h2---3---|
4.---------3---5-|
5.---------------|
6.---------------|

1.-----------------------------|
2.-----------------------------|
3.-3-----5-----3-----5-----3-2-|
4.---5-5---5-5---5-5---5-5-----|
5.-----------------------------|
6.-----------------------------|

1.-----------------------------|
2.-----------------------------|
3.-3-----5-----3-----5-----3-2-|
4.---5-5---5-5---5-5---5-5-----|
5.-----------------------------|
6.-----------------------------|...

No hay comentarios:

Publicar un comentario