.

banners

Tabs fácil de... La demencia de la soledad. Víctor de Andrés.




    Víctor de Andrés no para, Zenobia, Scarlett Animal, Vlog, y ahora nuevo tema "La demencia de la soledad" donde el guitarrista nos vuelve a demostrar todas sus habilidades guitarrísticas, por si alguno tenía duda, a estas alturas.
   Es posiblemente, el músico que más nos ofrece a los amantes y seguidores de la guitarra en su vertiente más metal, y también en la más canalla y divertida.
   Desde Tablaturas fáciles somos seguidores incondicionales y nunca faltan esos momentos en tablatura que compartimos con todos vosotros desde que comenzamos y hoy, queremos dejaros un pequeño fragmento de ese buenísimo tema que es "La demencia de la soledad".
   Víctor de Andrés de nuevo en TabsFácil.es
  Un saludo.




La demencia de la soledad. Víctor de Andrés.


(0:50)

1.--------------------------|
2.--------6-5-------------6-|
3.-/7-5-7-----7----5-7-5----|
4.--------------8-----------|
5.--------------------------|
6.--------------------------|

1.------------3----3-5-3------|
2.-5h6h5h6h5h3---6-------6-5--|
3.---------------------------7
4.----------------------------|
5.----------------------------|
6.----------------------------|

1.---------------------------------|
2.--------6--------6----/10-8-10-11
3.-/7-5-7---/7-5-7---7-------------|
4.---------------------------------|
5.---------------------------------|
6.---------------------------------|

1.---------------------------------|
2.-10------------------------18-17-|
3.----10-10--12-12--19-17-19-------|
4.---------------------------------|
5.---------------------------------|
6.---------------------------------|

1.---------------------------------|
2.----------------18-------20--18-20
3.-19----17-19-17----21-19---------|
4.----20---------------------------|
5.---------------------------------|
6.---------------------------------|

1.-17------------------------------|
2.----20-18---------------6--------6
3.----------21-19--/7-5-7----7-5-7-|
4.---------------------------------|
5.---------------------------------|
6.---------------------------------|

1.---------------6--------------|
2.---10-8h10h8h6---10-6--6--8-8-|
3.-7----------------------------|
4.------------------------------|
5.------------------------------|
6.------------------------------|...



No hay comentarios:

Publicar un comentario