.

banners

Tablatura fácil de... 1755 (teaser). Moonspell.




   Los portugueses Moonspell ya tienen preparado nuevo trabajo. Llevará por título "1755" y saldrá a la luz el próximo 3 de Noviembre.
   La banda ha adelantado que la obra girará en torno al terremoto que sucedió en Lisboa en 1755 y que sus letras van a ser cantadas en portugués.
   Desde tablaturas fáciles queremos invitaros a tocar un momento en tablatura, correspondiente al teaser que la banda ha adelantado para sus fans.
  Un saludo.
  TabsFácil.




1755 (teaser). Moonspell.

                                                 (HH)
1.-------5-----------------------|
2.-----5---5-8--5-5/6--5--/2-(3)-2
3.-2-----------------------------|
4.-------------------------------|
5.-------------------------------|
6.-------------------------------|

                                                 (HH)
1.-------5-----------------------|
2.-----5---5-8--5-5/6--5--/2-(3)-2
3.-2-----------------------------|
4.-------------------------------|
5.-------------------------------|
6.----------------------------|...




No hay comentarios:

Publicar un comentario