.

banners

Tabs fácil de... Self pollution. Marty Friedman.




    “Self Pollution“ es la primera canción que ha salido a la luz del nuevo álbum de Marty Friedman titulado “Wall of Sound“ cuyo lanzamiento está previsto para el próximo mes de Agosto.
  El adelanto del álbum nos muestra que Marty Friedman sigue en la línea de sus últimas grabaciones, sonidos muy potentes, armonías endiabladas y pasajes melódicos muy característicos de su estilo.

  Listado de canciones de “Wall of Sound”:

1. Self Pollution
2. Sorrow and Madness (con Jinxx de Black Veil Brides)
3. Streetlight
4. Whiteworm
5. For A Friend
6. Pussy Ghost (con Shiv Mehra de Deafheaven)
7. The Blackest Rose
8. Something to Fight (con Jorgen Munkeby de Shining)
9. The Soldier
10. Miracle
11. Last Lament

   Y como siempre, desde tablaturas fáciles os queremos dejar unos momentos en tablatura del primer single " Self pollution " para que lo disfrutéis y paséis un buen rato con la guitarra.
  Un saludo.
  TabsFácil.



Self pollution. Marty Friedman.


(1:17)

1.------------------------------|
2.------------------------------|
3.------------------------------|
4.------------------------------|
5.------------------------------|
6.-2-2--2h3--2h3--2-2--2-2--2-2-|

1.------------------------------|
2.------------------------------|
3.------------------------------|
4.------------------------------|
5.------------------------------|
6.-2h3--2h3--2-2--2-2--2-2--2h3-|

1.------------------------------|
2.------------------------------|
3.------------------------------|
4.------------------------------|
5.------------------------------|
6.-2h3--2-2--2-2--2-2--2h3--2h3-|


(1:33)

1.------------------------------|
2.------4(5)(4)-----------------|
3.-4(5)---------3-----8-10h8h7--|
4.-----------------8------------|
5.------------------------------|
6.------------------------------|

1.------------------------------|
2.------------------------------|
3.------------------------------|
4.-5/7--------9--9/10--10-9--10-|
5.-----7--/12-------------------|
6.------------------------------|

1.------------------------------|
2.-------------------4(5)(4)(5)(4)
3.---------------4-5------------|
4.-10/9-7----/7-----------------|
5.--------10--------------------|
6.------------------------------|

1.------------------------------|
2.------4/3---------------------|
3.-3--3-----------------------4(5)
4.-----------6/7-6/7--------9---|
5.-------------------7--/12-----|
6.------------------------------|


1.------------------------------|
2.----8-10-8-10-10--13-15-15(16)
3.-/9---------------------------|
4.------------------------------|
5.------------------------------|
6.------------------------------|

1.------------------------------|
2.-13-15-15(16)-13-15-13--------|
3.-----------------------14-13-12
4.------------------------------|
5.------------------------------|
6.---------------------------|...






No hay comentarios:

Publicar un comentario