.

banners

Tabs fácil de... Run. Foo Fighters.




   Foo Fighters regresan a la actualidad musical después de 2 años, con el lanzamiento de un single con videoclip incluido del tema "Run".
  En Tablaturas fáciles no hemos querido perder la oportunidad de ofreceros unos momentos en tablatura del tema, con el que esperamos que disfrutéis y paséis un buen rato.
  Un saludo.
  TabsFácil.



Run. Foo Fighters.


(5:03)Solo. Tiempo del vídeo.

1.---------------------------10-|
2.---12---12---12---10---7/8----|
3.-9----9----9----7----7--------|
4.------------------------------|
5.------------------------------|
6.------------------------------|

1.--------9----9---9--------------10-|
2.-7/8-------------------12----/8----|
3.-----9----9----9----/9----9--------|
4.-----------------------------------|
5.-----------------------------------|
6.-----------------------------------|

1.---------------------------10-|
2.---12---12---12---10---7/8----|
3.-9----9----9----7----7--------|
4.------------------------------|
5.------------------------------|
6.------------------------------|

1.--------9----9-------------------|
2.-7/8--------------12---10-----10-|
3.-----9----9----/9----7-----7-----|
4.---------------------------------|
5.---------------------------------|
6.-----------------------------|...





No hay comentarios:

Publicar un comentario