.

banners

Tabs fácil de... The rise of chaos. Accept.




    Los veteranos e inagotables alemanes Accept están de vuelta. Ya podemos escuchar y conseguir vía plataformas digitales un tema adelanto "The rise of Chaos" que además dará título a su próxima obra y que tiene prevista su salida, el 4 de Agosto.
  En tablaturas fáciles nos encantan las guitarras de este grupo y es por eso que no suele faltar en nuestro índice de tabs, así que, ahí os dejamos unos momentos en tablatura del tema que ya nos han presentado.
  "The rise of chaos" y Accept en tablaturas fáciles.
  Un saludo.
  TabsFácil.



The rise of chaos. Accept.


1.---------------------------------|
2.---------------------------------|
3.---------------------------------|
4.---------------------------------|
5.---------------------------------|
6.-0-0-0-0--3-0--0-0-0--6-0--0-0-6-0

1.----------------------------------|
2.----------------------------------|
3.----------------------------------|
4.----------------------------3-2---|
5.----------------------------1-0---|
6.-3-5-3-0--0-0-0-0--3-0--0-0-----3h0

1.---------------------------------|
2.---------------------------------|
3.---------------------------------|
4.---------------------------------|
5.---------------------------------|
6.-0-0-0-0--3-0--0-0-0--6-0--0-0-6-0

1.----------------------------------|
2.----------------------------------|
3.----------------------------------|
4.----------------------------------|
5.-----------------------------5-7-8
6.-3-5-3-0--0-0-0-0--3-0--0-0--3-5-6


(1:23)..."The rise of chaos"...

1.----------------------------------|
2.----------------------------------|
3.----------------------------------|
4.----------------------------------|
5.-2-2-------2-2-------2-2-------2-2
6.-0-0--2-3--0-0--3-2--0-0--2-3--0-0

1.-----------------------------------|
2.-----------------------------------|
3.-----------------------------------|
4.-----------------------------------|
5.-3-2--2-2-------2-2-------2-2------|
6.------0-0--2-3--0-0--3-2--0-0--2-3-3




No hay comentarios:

Publicar un comentario