.

banners

Tabs fácil de... Magnetic telephone. Alestorm & Lady Gaga.




   Más que acostumbrados tiene Lady Gaga a sus fans, con sus colaboraciones y mezclas de sus temas con otros grupos, en especial los más heavys. Lo hizo con Metallica, y aunque ya habíamos escuchado alguno que otro más, ésta vez, aprovechando la salida al mercado del nuevo trabajo de los metaleros escoceses Alestorm, podemos ver un videoclip donde la banda y Lady Gaga nos bailan y cantan al song de "Magnetic Telephone."
   Para los que os atrevais, os dejamos en tablaturas fáciles, unos momentos de tablatura del tema, para que disfrutéis y practiquéis.
  Un saludo.
  TabsFácil.


Magnetic telephone. Alestorm & Lady Gaga.


1.------------------------------|
2.-/7------7-9-10-9-7-----------|
3.----6-6-------------9-6--/9---|
4.----------------------------9-|
5.------------------------------|
6.------------------------------|

1.-------------|
2.-------------|
3.-------------|
4.-7-9-/11-----|
5.---------9-9-|
6.-------------|

1.----------------------------------|
2.---------2----------------5-------|
3.-------2---2------------6---6-----|
4.-----4-------4--------7-------7---|
5.---4-----------4----7-----------7-|
6.-2----------------5---------------|

1.--------------------------------|
2.---------0--------------2-------|
3.-------1---1----------2---2-----|
4.-----2-------2------4-------4---|
5.---2--------------4-----------4-|
6.-0--------------2---------------|


(0:32)

1.-------------------------------|
2.-------------------------------|
3.-------------------------------|
4.-------------------------------|
5.----4-4----------------4--7-7--|
6.-//-2-2--2-2-2--2-2-2--2--5-5--|

1.--------------------------------|
2.--------------------------------|
3.--------------------------------|
4.--------------------------------|
5.--------7-7--7--2-2-------------|
6.-5-5-5--5-5--5--0-0--0-0-0--0-0-0

1.-----------------------|
2.-----------------------|
3.-----------------------|
4.-----------------------|
5.-2-2--4------4-4--4-4--|
6.-0-0--2-2-2--2-2--2-2--|...


(0:55)

1.---------------------------------|
2.---------------------------------|
3.---------------------------------|
4.---------------------------------|
5.-4---------4---------4---------2-|
6.-2--2-2-2--2--2-2-2--2--2-2-2--0-|

1.---------------------------------|
2.---------------------------------|
3.---------------------------------|
4.------------------4---------4----|
5.--------2---------2--2-2-2--2--2-2
6.-0-0-0--0--0-0-0-----------------|

1.-----------------------|
2.-----------------------|
3.-----------------------|
4.-----------------------|
5.-2--6---------6--------|
6.----4--4-4-4--4--4-4-4-|...





No hay comentarios:

Publicar un comentario