.

banners

Tabs fácil de... I am iniquity. (Teaser) Asking Alexandria.





    Tan atrapados hemos quedado con la noticia de que Danny Worsnop regresaba a Asking Alexandria y que ya estaban preparando nuevo material, del cuál nos dejaban un pequeño teaser correspondiente al tema que llevará por título: "I am iniquity" que desde tablaturas fáciles nos hemos animado a aprovechar hasta esos pocos segundos que dura el teaser para elaborar un momento en tablatura y por que no, una mini lección para comprender la importancia de los controles de la guitarra, en este caso el de volumen.
  Así que no esperes más, disfruta desde ya, con la tablatura que te hemos preparado de lo más reciente de Asking Alexandria y practica hasta controlar, valga la redundancia, los controles de volumen y tono de tu guitarra.
  Un saludo.
  TabsFácil.



I am iniquity. Asking Alexandria.


   *< Vol.  < Vol.  < Vol.  < Vol.   < Vol. < Vol.
1.---------------------------------|
2.---------------------------------|
3.-10----7-----------10-----7------|
4.-------------7-----------------7-|
5.---------------------------------|
6.---------------------------------|


    < Vol. < Vol. < Vol. < Vol. < Vol.< Vol. < Vol.
1.---------------------------------|
2.---------------------------------|
3.-10----7----------------10---7---9
4.------------7--10--9--7----------|
5.---------------------------------|
6.----------------------------|...

*  Golpea la nota con el control de volumen a cero y ve subiendo el volumen gradualmente, así conseguirás con la guitarra el efecto que escuchas en el teaser.



                                  


No hay comentarios:

Publicar un comentario