.

banners

Tabs fácil de... Doctor Who. Hank Marvin.

doctor who_tablatura

   Hank Marvin lanzaba nuevo álbum "Without A Word" el 2 de junio de 2017 en CD, vinilo y digital, con 14 nuevas grabaciones, incluyendo algunas de las canciones favoritas de Hank (las que confesaba, desearía haber escrito personalmente).
  Este es el decimosexto álbum en solitario de Hank Marvin y es una colección de sus canciones favoritas, además de una nueva canción 'Russian Doll', que fue co-escrita con su hijo Ben.
  De que Hank Marvin es una leyenda de la guitarra no hay duda, después de haber influenciado a muchos otros grandes guitarras como Brian May, Jeff Beck, Mark Knopfler e incluso aquellos no asociados con las guitarras como Jean-Michel Jarre, que cita Hank Marvin como una influencia para él y su música instrumental. 
  En Tabs fáciles no podía faltar un guitarrista de la talla del gran Hank Marvin, por lo que os queremos dejar unos momentos en tablatura del tema "Doctor Who" para que disfrutéis y practiquéis.
  Un saludo.
  TabsFácil.




Doctor Who. Hank Marvin.


1.---------------------------------|
2.-13--9---------------6---6-4-----|
3.-------10--5/8--6-5----6-----6-5-6
4.---------------------------------|
5.---------------------------------|
6.---------------------------------|

1.---------------------------------|
2.-11--7-9-7----11--9h11h9---------|
3.-----------6---------------------|
4.--------------------------11/13-13
5.---------------------------------|
6.---------------------------------|

1.---------------------------------|
2.---------14-13--16()14-13--13-9--|
3.-10--/10-------------------------|
4.--------------------------------10
5.---------------------------------|
6.---------------------------------|

1.---------------------------------|
2.-------------14-13--16()14-13--13
3.-8()6-5--/10---------------------|
4.---------------------------------|
5.---------------------------------|
6.---------------------------------|

1.---------------------------------|
2.-9-------------------------------|
3.-------8()6-5--10----10----------|
4.----10------------11----13--11-10
5.---------------------------------|
6.---------------------------------|

1.---------------------------------|
2.----11--9-7-9-----11-9-11-9------|
3.---------------------------------|
4.-11------------11-----------11/13
5.---------------------------------|
6.---------------------------------|

1.----------------------|
2.------------13(14)(13)
3.-----10--10-----------|
4.-13-------------------|
5.----------------------|
6.----------------------|...



No hay comentarios:

Publicar un comentario