.

banners

Tablatura fácil de... Resistencia. Warcry.


   La formación asturiana Warcry, referencia dentro del panorama heavy metal estatal acaba de lanzar al mercado su nuevo álbum de estudio, el noveno en su trayectoria discográfica, "Donde el silencio se rompió…"

 En declaraciones de su cantante Víctor García donde asegura que el disco es  “más rockero”, con 11 temas, entre los que se encuentran una balada de piano y voz, más medios tiempos y riffs de guitarra y un sonido más heavy metal, en comparación con trabajos previos.

 Perseverantes y fieles a sí mismos, Warcry ponen a la venta su trabajo más apegado al concepto clásico de heavy metal y como no podía ser de otra manera en Tablaturas fáciles queremos dejarte uno de esos momentos en tablatura de uno de sus temas, hoy le toca a "Resistencia" segundo corte del disco.

  Un saludo.
  TabsFácil.




Resistencia. Warcry.


1.---------------------------------|
2.---------------------------------|
3.-------------------------------1-|
4.-1-1-1-1-4--1-1-1-1-3--1-1-1-1---|
5.---------------------------------|
6.---------------------------------|

1.---------------------------------|
2.---------------------------------|
3.---------4-----------------------|
4.-1-1-1-1----1-1-1-1-3h4----------|
5.-------------------------4-4--4-4
6.-------------------------2-2--2-1


1.-------------|
2.-------------|
3.-------------|
4.----3-3-/4-1-|
5.-4-----------|
6.-1-----------|


1.---------------------------------|
2.---------------------------------|
3.-------------------------------1-|
4.-1-1-1-1-4--1-1-1-1-3--1-1-1-1---|
5.---------------------------------|
6.---------------------------------|

1.---------------------------------|
2.---------------------------------|
3.---------4-----------------------|
4.-1-1-1-1----1-1-1-1-3h4--6-6--6--|
5.-------------------------4-4--4-6
6.--------------------------------4


1.-------------|
2.-------------|
3.-------------|
4.----3-3-/4-1-|
5.-6-----------|
6.-4-----------|


(1:10) ..."Mira el reloj"...

1.---------------------------------|
2.---------------------------------|
3.---------------------------------|
4.-8-8---------------4-4-----------|
5.-6-6-6-6-6-6-6-6-6-2-2-2-2-2-2-2-2
6.---------------------------------|

1.---------------------------------|
2.---------------------------------|
3.---------------------------------|
4.-----------------------------8---|
5.-6-6----------------4-4-3-3--6-6-6
6.-4-4-4-4-4-4-4-4-4--2-2-1-1------|

1.---------------------------------|
2.---------------------------------|
3.---------------------------------|
4.------------6-6--6-8-8-----------|
5.-6-6-6-6-6--4-4--4-6-6-6-6-6-6-6-6
6.---------------------------------|

1.---------------------------------|
2.---------------------------------|
3.---------------------------------|
4.-4-4-----------------------------|
5.-2-2-2-2-2-2-2-2-2--6-6----------|
6.--------------------4-4-4-4-4-4-4

1.----------------|
2.----------------|
3.----------------|
4.-----------8-8--|
5.-4-4--3-3--6-6--|
6.-2-2--1-1-------|...

No hay comentarios:

Publicar un comentario