.

banners

Tablatura fácil de... Piratas del Caribe. (Cover).



  Hoy desde tu web de Tablaturas para guitarra te proponemos un cover, la tablatura de una banda sonora que forma parte ya de la historia del cine y seguramente de las más versioneadas por todo tipo de músicos y sobre todo por guitarristas de todos los estilos. Se trata de  la banda sonora de Piratas del Caribe, creada por Hans Zimmer. Piratas del Caribe es una saga de películas de aventuras y piratas, cuyo hilo conductor son las desventuras del capitán Jack Sparrow.

  Esta serie de películas combina a la perfección en cada uno de sus guiones un contexto histórico y ficticio en el que conviven seres y piratas que han existido anteriormente como el pirata Davy Jones y su tripulación fantasmal a bordo de El holandés errante, o monstruos mitológicos como el Kraken, con la vida de los personajes que encarnan la saga. En un mundo gobernado por el Imperio británico, la Compañía de las Indias Orientales o el Imperio Español.

 La serie comenzó en 2003 con Piratas del Caribe: La Maldición de la Perla Negra. Tres años después llegaría El cofre del hombre muerto. En el fin del mundo, siguió en 2007. La cuarta fue En mareas misteriosas en 2011 y la quinta recién estrenada el 25 de Mayo de este año, Piratas del Caribe: La venganza de Salazar en la que los marineros fantasmas, liderados por el aterrador Capitán Armando Salazar (Javier Bardem), se escapan del Triángulo del Diablo empeñados en matar a Jack cuya única esperanza que tiene de sobrevivir pasa por el legendario Tridente de Poseidón. En cuya búsqueda, se unirá con Carina Smyth (Kaya Scodelario), una brillante y hermosa astrónoma, y con Henry Turner (Brenton Thwaites), un joven y decidido marinero de la Marina Real, al timón del Dying Gull.


 Coge tu guitarra y revive las aventuras del capitán Jack sparrow tocando la tablatura que te deja tabsfacil.es, este cover de una de las bandas sonoras más épicas y posiblemente con más adaptaciones para guitarra del cine.






Piratas del Caribe.

1.------------------------------------------|
2.------------------------------------------|
3.------------------------------------------|
4.-0-0--0-0--0-0-0-0-0--0-0--0-0--0-0-0-0-0-|
5.------------------------------------------|
6.------------------------------------------|

1.------------------------------------|
2.------------------------------------|
3.------------------------------------|
4.---------------------5--------------|
5.-----5-5--5-7-8-8--8---7-7--5-----5-|
6.-5-8--------------------------8-8---|

1.------------------------------------|
2.------------------------------------|
3.------------------------------------|
4.---------------------5--------------|
5.-----5-5--5-7-8-8--8---7-7--5---5---|
6.-5-8--------------------------8-----|

1.------------------------------------|
2.------------------------------------|
3.------------------------------------|
4.---------------------5-7-8-8--7-5-7
5.-----5-5--7-8-10-10-----------------5
6.-5-8--------------------------------|

1.-------------------------------|
2.-------------------------------|
3.-------------------------------|
4.---------5-7-------------------|
5.-5-7-8-8-----5--7-8-7-7--7-8-7-|
6.-------------------------------|

1.------------------------------------|
2.-------------------------8----------|
3.------7-7--7-9-10-10--10---9-9--7---|
4.-7-10-----------------------------10
5.------------------------------------|
6.------------------------------------|

1.------------------------------------|
2.-------------------------------8----|
3.----7-------7-7--7-9-10-10--10---9-9
4.-10----7-10-------------------------|
5.------------------------------------|
6.------------------------------------|

1.------------------------------------|
2.-------------------------------8-10-|
3.-7----7-------7-7--9-10-12-12-------|
4.---10----7-10-----------------------|
5.------------------------------------|
6.------------------------------------|

1.----------------------------------|
2.-11-11--10-8-10-------------10----|
3.----------------7--10-10-12-------|
4.-------------------------------12-|
5.----------------------------------|
6.----------------------------------|

1.-----------------------------------|
2.---------------------------------10
3.-10-12-9-9--------------10-10-12---|
4.-----------12-10-12--12------------|
5.-----------------------------------|
6.-----------------------------------|

1.---------------------------|
2.--------11-----------------|
3.-10-9-7----12-10-9---------|
4.---------------------------|
5.---------------------7-8-7-|
6.---------------------5-6-5-|

1.-5-5-5--6-5--------------5-5-5--6-5-|
2.------------8-8-8--8-10-------------|
3.------------------------------------|
4.------------------------------------|
5.------------------------------------|
6.------------------------------------|

1.------------------------------------|
2.-8-6-------------8-10-8-------------|
3.-----9-7--7h9h10--------10--9-10-12-|
4.------------------------------------|
5.------------------------------------|
6.------------------------------------|

1.----------------------------------|
2.-10-8--6h8h10--8-6-5-6--5---------|
3.--------------------------7--5-7--|
4.----------------------------------|
5.----------------------------------|
6.----------------------------------|

1.------------------------------------|
2.------------------------10----------|
3.-7-9-10--9-10-12--10-12----12-10----|
4.---------------------------------12-|
5.------------------------------------|
6.------------------------------------|

1.-------------------------5--6--5-5-5
2.--------8-10-11---------------------|
3.-7-9-10---------10--9-7-------------|
4.------------------------------------|
5.------------------------------------|
6.------------------------------------|

1.-5-3-------------------------5------|
2.-----8--6--5-6-5--5-3--3h5h6---3h5h6
3.------------------------------------|
4.------------------------------------|
5.------------------------------------|
6.------------------------------------|

1.-6-------5-5-5--5-3-----------------|
2.---3h5h6-------------8--6--5-6-5----|
3.----------------------------------7-|
4.------------------------------------|
5.------------------------------------|
6.--------------------------------|...



No hay comentarios:

Publicar un comentario