.

banners

Tabs fácil y acordes de... Incapacidad moral transitoria. Love of Lesbian.

love of lesbian tablaturas

  Love of Lesbian lanzan nuevo single "Incapacidad moral transitoria" extraído de su último trabajo "El poeta Halley" con el que andan inmersos en la gira que cerrarán en el mes de Noviembre tanto en Barcelona como en Madrid.
  En tablaturas fáciles te queremos dejar unos momentos en tablatura y unos acordes para que practiques y disfrutes tocando la guitarra, si este es de tus grupos preferidos.
  Un saludo.
  TabsFácil.




 Incapacidad moral transitoria. Love of Lesbian.


1.------------------------------|
2.---------3-----------3-3------|
3.----2------4-----2-------4-4--|
4.-/4---4-------/4---4----------|
5.------------------------------|
6.------------------------------|

1.-------------/2-5-2-----------|
2.---------3----------5-3-------|
3.----2------4------------4-2--4
4.-/4---4-----------------------|
5.------------------------------|
6.------------------------------|

1.------------------------------|
2.---------3-----------3-3------|
3.----2------4-----2-------4-4--|
4.-/4---4-------/4---4----------|
5.------------------------------|
6.------------------------------|

1.--------------------------------|
2.---------3-----5(7)-5(7)-5-3-5-3|
3.----2------4--------------------|
4.-/4---4-------------------------|
5.--------------------------------|
6.--------------------------------|

1.---2-2-----------------------|
2.---3-3------------------7-7--|
3.---4-4----3-3----4-4----7-7--|
4.----------4-4----5-5----7-7--|
5.-2--------4-4----5-5--5------|
6.--------2------3-------------|...



Sim                Fa#
No hay opción, 

         Sol
si entre la dignidad y el mal 

Re
en el medio ando yo.

 Sim                                   Fa#
¿Por qué me siento extraño? 

            Sol
Como la Mantis que al final 

Re
por no oír, su cabeza perdió. 

Sim            Fa#
Sed de mal, 

          Sol
es mi pecado original, 

Re
solo una versión más.

Sim                           Fa#
Voy a lamer tu sangre, 

     Sol
ya sabes que el sabor nunca

Re
 ocupa lugar.


  La                 Re            Mi Fa#
Soy euforia, luego escoria, 

Sol                                       La
por mi incapacidad moral transitoria, 

 Re                  Sol
gloria. Al místico y al Borgia 

                          Mim
has unido en mi ser, 

                                           Sim
y ahora son, hermanas del placer...




No hay comentarios:

Publicar un comentario