.

banners

Tabs fácil de... Told you so. Paramore.






     Después de "Hard Times",  el primer lanzamiento de Paramore para presentar su nuevo disco y  además, también es su primera canción como trío,  hay que recordar que el batería Zac Farro está de vuelta en la banda como miembro permanente tras su marcha en 2010, mientras que Jeremy Davies, bajista, dejó la agrupación a finales de 2015, llega su sencillo número dos "Told you so", que la banda estadounidense  estrenaba en YouTube, en el que la cantante Hayley Williams sorprende a todos sus seguidores.
  Después del estreno de "Hard Time", Paramore ha decidido lanzar el segundo 'single' de "After Laughter", nombre del nuevo disco de la banda, después de cuatro años de ausencia en la industria musical y que saldrá el 12 de Mayo.

  Hoy en Tablaturas fáciles aprende a tocar los acordes y un momento en tablatura de "Told you so" de Paramore.
  Un saludo.
  TabsFácil.




 Told you so. Paramore.


"For all I know. The best is over and the

1.-------------1-1------1-1-------|
2.---------3---3-3------3-3-------|
3.---------3---2-2------2-2-------|
4.---------3---0-0------0-0-------|
5.---------1----------------------|
6.--------------------------------|


worst is yet to come. Is it enough to

1.-----------1-1------1-1----|
2.-3---------3-3------3-3----|
3.-3---------2-2------2-2----|
4.-3---------0-0------0-0----|
5.-1-------------------------|
6.---------------------------|


 keep on hopping when the rest have

1.----1-1------1-1---------|
2.-3--3-3------3-3-------3-|
3.-3--2-2------2-2-------3-|
4.-3--0-0------0-0-------3-|
5.-1---------------------1-|
6.-------------------------|


give up...

1.-1-1-|
2.-3-3-|
3.-2-2-|
4.-0-0-|
5.-----|
6.-----|

1.----------------------------|
2.-------10-11-10-------13-11-|
3.-10-12----------------------|
4.----------------10h12-------|
5.----------------------------|
6.----------------------------|

1.------------------|
2.-10--------10-----|
3.----12-10---------|
4.---------------12-|
5.------------------|
6.------------------|

1.----------------------------|
2.-------10-11-10-------13-11-|
3.-10-12----------------------|
4.----------------10h12-------|
5.----------------------------|
6.----------------------------|

1.------------------|
2.-10--------10-----|
3.----12-10---------|
4.---------------12-|
5.------------------|
6.------------------|

1.----------------------------|
2.-------10-11-10-------13-11-|
3.-10-12----------------------|
4.----------------10h12-------|
5.----------------------------|
6.----------------------------|

1.------------------|
2.-10--------10-----|
3.----12-10---------|
4.---------------12-|
5.------------------|
6.------------------|

1.----------------------------|
2.-------10-11-10-------13-11-|
3.-10-12----------------------|
4.----------------10h12-------|
5.----------------------------|
6.----------------------------|

1.------------------|
2.-10--------10-----|
3.----12-10---------|
4.---------------12-|
5.------------------|
6.------------------|

1.-13-10--12-8--13-10--12-18-|
2.---------------------------|
3.---------------------------|
4.---------------------------|
5.---------------------------|
6.---------------------------|

1.-13-10--12-8--13-10--12-18-|
2.---------------------------|
3.---------------------------|
4.---------------------------|
5.---------------------------|
6.---------------------------|

1.-13-10--12-8--13-10--12-18-|
2.---------------------------|
3.---------------------------|
4.---------------------------|
5.---------------------------|
6.---------------------------|

1.-13-10--12-8--13-10--17-|
2.------------------------|
3.------------------------|
4.------------------------|
5.------------------------|
6.------------------------|...


No hay comentarios:

Publicar un comentario