.

banners

Tabs fácil de... Love is the remedy. Jorn.



 Jorn publica el videoclip de Love Is The Remedy. Un nuevo tema del próximo disco del vocalista noruego,  "Life On Death Road". En el tema colabora el guitarrista griego, Gus G.
 Su nuevo disco saldrá el 2 de junio a través de Frontiers Music. El cual, será  su noveno trabajo con material original y con una nueva banda. 
  Si eres amante de los riffs heavys en tablaturas fáciles te dejamos el momento en tablatura correspondiente al riff de inicio, todo un riff heavy 100% para que lo disfrutes y practiques con la guitarra.
  Un saludo.
  TabsFácil.





 Love is the remedy. Jorn.


1.-------------------------------|
2.-------------------------------|
3.-------------------------------|
4.-------------------------------|
5.-------2----6--2-1h2--6--2-1h2-|
6.-0-2-0---2--4---------4--------|


1.---------------------------|
2.---------------------------|
3.---------------------------|
4.---------------------------|
5.-3--2-1h2--2--------2----6-|
6.-1---------0--0-2-0---2--4-|...



No hay comentarios:

Publicar un comentario