.

banners

Tabs fácil de... Land of hope and glory. Ritchie Blackmore's Rainbow.

ritchie_tabs


   Veinte años han pasado desde que Rainbow por medio de su fundador, el afamado guitarrista Ritchie Blackmore se disolviera, y aunque el año pasado regresaba al panorama musical para dar una serie de conciertos, es ahora cuando lanza al mercado un par de singles, "I surrender"  y "Land of hope and glory" éste último tema inédito, en realidad una versión de uno de los temas utilizados por Inglaterra como himno nacional, y el primero regrabado con nuevos músicos y con la excelente voz de los  Lords of Black, Ronnie Romero.

Rainbow es una banda de hard rock y heavy metal originaria de Reino Unido y liderada por el que fuera guitarrista  de Deep Purple, Ritchie Blackmore. Contó entre sus filas con vocalistas de la talla de Ronnie James Dio, Graham Bonnet y Joe Lynn Turner en diferentes etapas, además de numerosos músicos.



 No contento con la orientación musical que estaba tomando Deep Purple, Ritchie Blackmore, su guitarrista por entonces, decidió separarse y crear otra banda. Esto ocurría por Abril de 1975, para la que convocó a los miembros de Elf. Con esta formación salió el primer álbum, titulado Ritchie Blackmore's Rainbow (1975), del que podemos citar la canción "Man on the Silver Mountain”, cómo una de las clásicas en el repertorio de Rainbow. No tardaría Blackmore en desarmar el grupo y quedarse solamente con el cantante, Ronald James Padavona, más conocido en el panorama musical mundial como Ronnie James Dio. Pronto se les añadiría el bateria Cozy Powell, el bajista Jimmy BainTony Carey
 Después de idas y venidas y numerosos cambios en la formación y a pesar del éxito de los discos y los conciertos de la banda, Blackmore decidió empezar una nueva aventura musical con su pareja, la cantante Candice Night, con quien formaría Blackmore's Night banda de música medieval, y de la que puedes encontrar tablaturas aquí, en tablaturas fáciles, abandonando el mundo del rock, con la que continúa en la actualidad.

 En 2015 Ritchie Blackmore revelaba su intención de volver al mundo del rock, aunque fuera de forma fugaz, dando tres concierto en Europa a mediados del 2016 y, un año más tarde, Ritchie Blackmore’s Rainbow regresa lanzando al mercado musical un par de temas, la canción inédita “Land of Hope And Glory” y una regrabación del clásico “I Surrender”,  del "Difficult to Cure" álbum grabado en el 81. Además la banda tiene prevista cuatro conciertos este mes de Junio por la geografía británica. 

  Hoy en tabs fáciles te invitamos a que toques la guitarra, aprendas y disfrutes con uno de los guitarristas que han hecho historia en el mundo del hard rock y con su más reciente creación. 

  En tablaturas faciles "Land of hope and glory" de Ritchie Blackmore's Rainbow.

  Un saludo.
  TabsFácil.


 Land of hope and glory. Ritchie Blackmore's Rainbow.

  (1:14)


1.--------------------------------|
2.-/8--7-8-10---------------------|
3.------------/9-7--/5--4-5-/7----|
4.-----------------------------/7-|
5.--------------------------------|
6.--------------------------------|

1.--------------------------------|
2.----------------------10--------|
3.----------------6-7-9----8(10)(8)
4.-7-5-4-5-/7--/9-----------------|
5.--------------------------------|
6.--------------------------------|

1.--------------------------------|
2.----/8-8-7-5h7h5--3-------------|
3.-7------------------5h7h5h7h5h7h5
4.--------------------------------|
5.--------------------------------|
6.--------------------------------|

1.-------------------------------10
2.------/8--7-8-10------------12--|
3.-4---------------9-7-----12-----|
4.---7------------------14--------|
5.--------------------------------|
6.--------------------------------|

1.-12-----------------------------|
2.----15-13-12--15-13h15h13h12----|
3.-----------------------------14-|
4.--------------------------------|
5.--------------------------------|
6.--------------------------------|

1.--------------------------------|
2.-13-12-10-----------------------|
3.----------12-11-----------------|
4.----------------14-12-10--------|
5.-------------------------14-12-10
6.--------------------------------|

1.--------------------------------|
2.-----------------------10-------|
3.-----------------6-7-9----8(10)(8)
4.--------------/9----------------|
5.----10-12-----------------------|
6.-14-------10--------------------|

1.--------------------------------|
2.---/13--13--13-12h13h12-10--12-13
3.-7------------------------------|
4.--------------------------------|
5.--------------------------------|
6.--------------------------------|

1.--------------------------------|
2.-15-13h15h13h12----12-----------|
3.----------------14----12--------|
4.-------------------------12-10-9
5.--------------------------------|
6.--------------------------------|

1.--------------------------------|
2.-------------------------8----7-|
3.----------------------/9----9---|
4.-12-10h12h10h9------------------|
5.---------------12-10------------|
6.--------------------------------|

1.--------------------------------|
2.-8-10----/8---------------------|
3.------7-------------------------|
4.-------------9-10-9h10h9-7-7---5
5.--------------------------------|
6.--------------------------------|

1.-------------12-----------------|
2.----------------15-13-12-15-13h15
3.--------------------------------|
4.-5h7--5-------------------------|
5.--------7-----------------------|
6.----------0---------------------|

1.--------------------------------|
2.-h13h12----13-12-10-------------|
3.--------14----------12-11h12h11-|
4.--------------------------------|
5.--------------------------------|
6.--------------------------------|

1.------------------------15-13---|
2.------------------------------17
3.--------------------------------|
4.-14-12--10-9--7--5--------------|
5.-------------------9-7----------|
6.--------------------------------|

1.--------------------------------|
2.-15-----------------------------|
3.----17-16h17h16h17h16h17h16-14--|
4.-------------------------------16
5.--------------------------------|
6.--------------------------------|

                      HN HN HN
1.-----------------------------14(15)
2.----------------12--12----------|
3.-12-------11h12--------12-------|
4.----12h14-----------------12----|
5.--------------------------------|
6.--------------------------------|




No hay comentarios:

Publicar un comentario