.

banners

Tabs fácil de... Goodbye angels. Red Hot Chili Peppers.


  Del undécimo álbum de estudio de la banda de rock estadounidense Red Hot Chili Peppers, lanzado al mercado el 17 de junio de 2016 "The Getaway" sale hace pocos días con video clip incluido "Goodbye angels" el último sencillo de la banda.
  Aquí en tablaturas fáciles te queremos dejar como siempre un momento en tablatura para que toques, practiques y disfrutes con tu banda preferida.
  Un saludo.
  TabsFácil.




Goodbye angels. Red Hot Chili Peppers.


1.----------------------------|
2.----------------------------|
3.----------------------------|
4.----10----10----10----10----|
5.-12----12----12----12----12-|
6.----------------------------|

1.----------------------------|
2.----------------------------|
3.----11----11----9----9----9-|
4.-12----12----10---10---10---|
5.----------------------------|
6.----------------------------|

1.----------------------------|
2.----------------------------|
3.----9-----------------------|
4.-10------7---7----9----9----9
5.-------8---8---10---10---10-|
6.----------------------------|

1.----------------------------|
2.----------------------------|
3.---------------9----9----9--|
4.----9----9--10---10---10----|
5.-10---10--------------------|
6.----------------------------|

1.----------------------------|
2.----------------------------|
3.----------------------------|
4.---7---7---7---7----9----9--|
5.-8---8---8---8---10---10----|
6.----------------------------|

1.----------------------------|
2.----------------------------|
3.----------------------------|
4.----10----10----10----10----|
5.-12----12----12----12----12-|
6.----------------------------|

1.----------------------------|
2.----------------------------|
3.----11----11----9----9----9-|
4.-12----12----10---10---10---|
5.----------------------------|
6.----------------------------|

1.----------------------------|
2.----------------------------|
3.----9-----------------------|
4.-10------7---7----9----9----9
5.-------8---8---10---10---10-|
6.----------------------------|

1.----------------------------|
2.----------------------------|
3.---------------9----9----9--|
4.----9----9--10---10---10----|
5.-10---10--------------------|
6.----------------------------|

1.----------------------------|
2.----------------------------|
3.----------------------------|
4.---7---7---7---7----9----9--|
5.-8---8---8---8---10---10----|
6.----------------------------|


(2:26)

1.----------------------------|
2.-10--10-10-10--10-10-10--10-|
3.----------------------------|
4.----------------------------|
5.----------------------------|
6.----------------------------|

1.----------------------------|
2.-10--10-10-10--10-10-10--10-|
3.----------------------------|
4.----------------------------|
5.----------------------------|
6.----------------------------|

1.----------------------------|
2.-10--10-10--10-10-10--10--10
3.----------------------------|
4.----------------------------|
5.----------------------------|
6.----------------------------|

1.--------15h17---------------|
2.-10-10--------18h17--17h15--|
3.----------------------------|
4.----------------------------|
5.----------------------------|
6.----------------------------|

1.-----------------|
2.-15h13--13h12----|
3.--------------14-|
4.-----------------|
5.-----------------|
6.-----------------|...

No hay comentarios:

Publicar un comentario