.

banners

Tabs fácil de... God Damn. Avenged Sevenfold.




   Perteneciente al álbum "The Stage" lanzado el pasado año, Avenged Sevenfold vuelven a lanzar sencillo. Se trata del tema "God Damn" para el que han preparado vídeo y del que hoy os queremos dejar en Tablaturas fáciles un momento en tablatura para todos los que os guste la banda y queráis practicar y divertiros con vuestro grupo. Ni que decir tiene que el tema lo tocan con otras afinaciones alternativas, nosotros en tabsfacil.es intentamos siempre utilizar, cómo en este caso, la estándar. Dicho esto, sólo nos queda encomendaron hasta la próxima entrega.
  Un saludo.
  TabsFácil.




God Damn. Avenged Sevenfold.


1.--------------------------------|
2.--------------------------------|
3.------------------------7---5---|
4.--------------------5-8---8---8-|
5.-5-5-5-5-5-5-5--5-5-------------|
6.--------------------------------|

1.--------------------------------|
2.--------------------------------|
3.------------------------7---5---|
4.--------------------5-8---8---8-|
5.-5-5-5-5-5-5-5--5-5-------------|
6.--------------------------------|

1.--------------------------------|
2.------------------------2---1---|
3.----------------------3---3-----|
4.--------------------3-----------|
5.--------------------------------|
6.-1-1-1-1-1-1-1--1-1-------------|

1.--------------------------------|
2.------------------------2---1---|
3.----------------------3---3---3-|
4.--------------------3-----------|
5.--------------------------------|
6.-1-1-1-1-1-1-1--1-1--------|...


(2:56)

1.--------------------------------|
2.---6--------------11------------|
3.-7---7-7/9-7--/12----12-12/14-12
4.--------------------------------|
5.--------------------------------|
6.--------------------------------|

1.--------------------------------|
2.---6--------------11------------|
3.-7---7-7/9-7--/12----12-12/14-12
4.--------------------------------|
5.--------------------------------|
6.--------------------------------|

1.--------------------------------|
2.--------------------------------|
3.----10-12-12(14)(12)-10---------|
4.-11---------------------11--/15-|
5.--------------------------------|
6.--------------------------------|

1.--------------------------------|
2.----14--------------------------|
3.-15----15-15(17)15-----10-12----|
4.--------------------11----------|
5.--------------------------------|
6.--------------------------------|

1.--------------------------------|
2.------------------/20--18h20h18h
3.-12(14)(12)-10------------------|
4.---------------11---------------|
5.--------------------------------|
6.--------------------------------|

1.--------------|
2.-h16----------|
3.-----18-------|
4.--------20-17-|
5.--------------|
6.--------------|...


No hay comentarios:

Publicar un comentario