.

banners

Tabs fácil de... The curse of Queen Mary. Manuel Seoane.




    Uno de los mejores guitarristas del panorama metalero nacional es sin duda, Manuel Seoane, que después de prestar sus servicios a varias bandas, como Lujuria o Bürdel King, nos presenta un trabajo, "Insanity" en solitario, muy al estilo de esos grandes guitarristas de los ochenta como Vinnie Moore o Tony Macalpine entre otros.
   Hoy en tablaturas fáciles un pequeño momento en tablatura del tema con el que nos presentaba el disco "The curse of Queen Mary" con el que esperamos que paséis un buen rato y disfrutéis los seguidores de este gran guitarrista.
  Un saludo.
  TabsFácil.




The curse of Queen Mary. Manuel Seoane.


1.-------------------------------|
2.-------------------------------|
3.-------------------------------|
4.-----5-6-5h6h5h3-5-3---3-------|
5.-3-6-----------------6---6-5---5
6.-----------------------------6-|

1.---3h4h3---3------6-4-3--------|
2.-6-------6---6-4--------6-4-3--|
3.------------------------------5
4.-------------------------------|
5.-------------------------------|
6.-------------------------------|

1.-------------------------------|
2.-----------------------3/4-3---|
3.-----------------------------5-3
4.-----5-6-5h6h5h3-5-3-----------|
5.-3-6-----------------6---------|
6.-------------------------------|

1.-----4------------------|
2.---6---6------3-4-3-----|
3.-5-------3--5-------3-5-|
4.------------------------|
5.------------------------|
6.------------------------|...


No hay comentarios:

Publicar un comentario