.

banners

Tabs fácil de... Curse of darkness. Dragonforce.


   Dragonforce nos presenta  nuevo tema "Curse of Darkness". La canción proviene de su próximo álbum de estudio, "Reaching Into Infinity", que será publicado el 19 de mayo a través del sello earMUSIC.

"Reaching Into Infinity" lista de temas: 

01. Reaching Into Infinity
02. Ashes Of The Dawn
03. Judgement Day
04. Astral Empire
05. Curse Of Darkness
06. Silence
07. Midnight Madness
08. WAR!
09. Land Of Shattered Dreams
10. The Edge of the World
11. Our Final Stand

 Bonus Tracks:

12. Hatred And Revenge
13. Evil Dead (Deah cover)

   En Tablaturas fáciles te queremos dejar un momento en tablatura del segundo tema que la banda presenta a su público.
  Un saludo. 
  TabsFácil.




Curse of darkness. Dragonforce.


1.------------------------------|
2.------------------------------|
3.------------------------------|
4.-4----------------------------|
5.-2---------------5------------|
6.-----------------3------------|

1.------------------------------|
2.---7-5-3-------3----0-2-3---0-|
3.-4-------6-4-6----4-------4---|
4.------------------------------|
5.------------------------------|
6.------------------------------|

1.------------------------------|
2.------------------------------|
3.------------------------------|
4.------------------------------|
5.-----2-----------------3------|
6.-----0-----------------1------|

1.------------------------------|
2.-2-3-----0-2-3---0-2-3----0-3-|
3.-------4-------4--------4-----4
4.------------------------------|
5.------------------------------|
6.------------------------------|

1.------------------------------|
2.------------------------------|
3.------------------------------|
4.-------------4----------------|
5.-4-----------2--------------5-|
6.-2--------------------------3-|

1.------------------------------|
2.---0-2--------7-5-3-------3---|
3.-3-----3-4--4-------6-4-6---4-|
4.------------------------------|
5.------------------------------|
6.------------------------------|

1.------------------------------|
2.------------------------------|
3.------------------------------|
4.------------------------------|
5.------------------------2-----|
6.------------------------0-----|


1.------------------------------|
2.-------2-3----------2-3-------|
3.---4-------4---4---------4---4
4.-5---5-------5---5---------2--|
5.------------------------------|
6.------------------------------|

1.------------------------------|
2.------------------------------|
3.------------------------------|
4.------------------------------|
5.-------3-------------4--------|
6.-------1-------------2--------|...

1.------------------------------|
2.---2-3----------3------------2
3.-------4---4------4--3---3----|
4.-2-------5---5---------4---4--|
5.------------------------------|
6.------------------------------|

1.-----|
2.-----|
3.-3-4-|
4.-----|
5.-----|
6.-----|...


(2:26)

1.------------------------------|
2.--------------12--7--10--8-7-8
3.---11-9-11--------------------|
4.-9---------9------------------|
5.------------------------------|
6.------------------------------|

1.------------------------------|
2.-7-8-5-7----------------------|
3.---------7-9--6-7--4-6--------|
4.-----------------------7-9--5-7
5.------------------------------|
6.------------------------------|

1.-----|
2.-----|
3.-----|
4.-4-5-|
5.-----|
6.-----|...





No hay comentarios:

Publicar un comentario