.

banners

Tablatura fácil de... Rebelde. Warcry.

 

   El noveno álbum de Warcry se ha hecho esperar pero por fin ya tiene fecha de salida, será el 29 de Mayo cuando la banda exponente máximo del heavy metal en castellano saque a la calle el que llevará por título: "Donde el silencio se rompió..." Del que ya tiene tema adelanto "Rebelde" y del que como no podía ser de otra manera, os queremos dejar un momento en tablatura.
  Un saludo.
  TabsFácil.




Rebelde. Warcry.

(0:10)

1.--------------------------------|
2.--------------------------------|
3.--------------------------------|
4.--------8----------6------------|
5.-8-8--8-6---8-8--8-4---6-6--6-8-|
6.------------------------------6-|

1.--------------------------------|
2.--------------------------------|
3.--------------------------------|
4.------------------8----------6--|
5.--------9--8-8--8-6---8-8--8-4--|
6.-6-6--6-7-----------------------|

1.---------------------|
2.---------------------|
3.---------------------|
4.---------------------|
5.-6-6--6-8----------9-|
6.--------6---6-6--6-7-|...


(1:59)

1.--------------------------------|
2.-------7-------------------11---|
3.---------10(11)(10)-8--8-8----8-|
4.-----8--------------------------|
5.-/6-----------------------------|
6.--------------------------------|

1.--------------------------------|
2.---9-----7-----7-6------------7-|
3.-8---8-8---8-6-----8-6----------|
4.-----------------------8-6------|
5.---------------------------9----|
6.--------------------------------|

1.---6------------------------------|
2.-9---9-7-6------------------------|
3.-----------8-7-8-10-11-10-8-------|
4.----------------------------11-9-8
5.----------------------------------|
6.------------------------------|...



  

No hay comentarios:

Publicar un comentario