.

banners

Tablatura fácil de... Que si vengo que si voy. Rosendo.


   Rosendo presenta ‘Que si vengo que si voy’, single de adelanto de su próximo disco, “De escalde y trinchera”. Coincidiendo con la salida del single, Rosendo recibirá la Medalla de Oro de Madrid, máxima distinción para aquellas personas e instituciones que han destacado en sus correspondientes campos y tienen una especial vinculación con la ciudad de Madrid. 
  Hoy en Tabs fáciles unos momentos en tablatura del tema "Que si vengo que si voy" que esperamos que os guste y disfrutéis.
 Un saludo.
  TabsFácil.




Que si vengo que si voy. Rosendo.


1.------------------------------|
2.------------------------------|
3.------------------------------|
4.-4--4-7--4--4-2--4--4-7--4--4-2
5.-4--4-7--4--4-2--4--4-7--4--4-2
6.------------------------------|

1.------------------------------|
2.------------------------------|
3.------------------------------|
4.-4--4-7--4--4-2--4--4-7--4--4-2
5.-4--4-7--4--4-2--4--4-7--4--4-2
6.------------------------------|

1.------------------------------|
2.------------------------------|
3.------------------------------|
4.-4--4-7--4--4-2--4--4-7--4--4-2
5.-4--4-7--4--4-2--4--4-7--4--4-2
6.------------------------------|

(0:30) ..."Facilitio..."

1.------------------------------|
2.------------------------------|
3.-4--4-7--4--4-2--4--4-7--4--4-2
4.-4--4-7--4--4-2--4--4-7--4--4-2
5.------------------------------|
6.------------------------------|

1.------------------------------|
2.------------------------------|
3.------------------------------|
4.-4--4-7--4--4-2--4--4-7--4--4-2
5.-4--4-7--4--4-2--4--4-7--4--4-2
6.------------------------------|

1.------------------------------|
2.------------------------------|
3.------------------------------|
4.-4--4-7--4--4-2--4--4-7--4--4-2
5.-4--4-7--4--4-2--4--4-7--4--4-2
6.---------------------------|...


(0:46) "Si soy que si no soy..."

1.------------------------------|
2.------------------------------|
3.-9-9--7-7--2-2----------------|
4.-9-9--7-7--2-2--6-7--9-9--7-7-|
5.----------------4-5-----------|
6.------------------------------|

1.------------|
2.------------|
3.-2-2--------|
4.-2-2--------|
5.-------4-2--|
6.-------2-0--|

1.------------------------------|
2.------------------------------|
3.-9-9--7-7--2-2----------------|
4.-9-9--7-7--2-2--6-7--9-9--7-7-|
5.----------------4-5-----------|
6.------------------------------|

1.------------|
2.------------|
3.-2-2--------|
4.-2-2--------|
5.-------4-2--|
6.-------2-0--|...


(1:40)

1.-----------------------------|
2.------------7--10-9----------|
3.-----6-9--6--------------6-9-|
4.-7h9-----------------7h9-----|
5.-----------------------------|
6.-----------------------------|

1.-------------------------7(8)-7
2.----------------------7-------|
3.-6-7--6--------6-9-6---6------|
4.--------9--7h9----------------|
5.------------------------------|
6.------------------------------|

1.------------------------------|
2.-----------10-12--------------|
3.-12(14)-13--------12(14)-13-11
4.------------------------------|
5.------------------------------|
6.------------------------------|

1.-----------------------|
2.-----------------------|
3.-13--12(14)-13-11------|
4.-------------------14--|
5.-----------------------|
6.-----------------------|...



No hay comentarios:

Publicar un comentario