.

banners

Tablatura fácil de... Mi venganza. Saratoga.






   Saratoga regresaba al panorama musical con nuevo trabajo "Morir en el bien, vivir en el mal" hace ya cosa de un año. Regreso que suscitaba expectación por varios motivos, si serían capaces de aguantar mucho tiempo y si el disco recibiría la crítica y aceptación por parte de su público, después de su marcha. Después de ya un año de conciertos y presentaciones, Saratoga ha vuelto a recuperar el puesto que se merece.
  Hoy en Tablaturas fáciles os queremos dejar un momento en tablatura de su último sencillo "Mi venganza" para todos los que os guste el estilo de la banda.
  Un saludo.
  TabsFácil.





Mi venganza. Saratoga.


1.--------------------------|
2.--------------------------|
3.------------------6-8-----|
4.-8------------8-9-----9-8-|
5.-6-6-6-6-6-6--------------|
6.--------------------------|

1.--------------------------|
2.--------------------------|
3.--------------------6-----|
4.-9-8---6-8-6--6-8-9---6/8-|
5.-----9--------------------|
6.--------------------------|

1.--------------------------|
2.-----------/11-9----------|
3.-----------------11-10--/8
4.-6--6/8-6-----------------|
5.--------------------------|
6.--------------------------|

1.--------------------------|
2.--------------------/9--9-|
3.-8-8-8--10-11--10-8-------|
4.--------------------------|
5.--------------------------|
6.--------------------------|

1.------------|
2.-9-9--11-12-|
3.------------|
4.------------|
5.------------|
6.------------|...


(2:19)

1.----------------------------|
2.----------------------------|
3.----------------------13-/18
4.-/16-15-16-15----/16--------|
5.--------------16------------|
6.----------------------------|

1.----------------------------|
2.-/11-11-14-12--11-9---------|
3.--------------------11--10-8
4.----------------------------|
5.----------------------------|
6.----------------------------|

1.-----14h11----11--13h11----11
2.-----------14-----------14--|
3.----------------------------|
4.-11-------------------------|
5.----------------------------|
6.----------------------------|

1.-14h11----11--13h11----11--|
2.-------14-----------14-----|
3.---------------------------|
4.---------------------------|
5.---------------------------|
6.---------------------------|

1.-16h11----11--14h11----11--|
2.-------14-----------14-----|
3.---------------------------|
4.---------------------------|
5.---------------------------|
6.---------------------------|

1.-16h11----11--13h11----11h7
2.-------14-----------14-----|
3.---------------------------|
4.---------------------------|
5.---------------------------|
6.---------------------------|

1.---7--9h7---7--11h7---7--9h7-|
2.-9--------9---------9--------9
3.-----------------------------|
4.-----------------------------|
5.-----------------------------|
6.-----------------------------|...

No hay comentarios:

Publicar un comentario