.

banners

Tablatura fácil de... Cambalache & Bronca. Vargas Blues Band.


  Javier Vargas, el Santana español vuelve a escena con su Vargas Blues Band y estrena su nuevo disco Cambalache & Bronca, proyecto en el que recupera temas legendarios de autores argentinos y una composición con Manolo Tena. El álbum salió a la venta el 21 de Abril.
  El primer single, abriendo el álbum, lleva también por título Cambalache & Bronca,  del que hoy os queremos dejar desde tablaturas fáciles un momento en tablatura para los que os guste este virtuoso guitarrista.
  Un saludo.
  TabsFácil.





Cambalache & Bronca. Vargas Blues Band.


1.-----------------------5-|
2.-----------------------5-|
3.-4-2-4-2---------------5-|
4.---------4-2-0-2--0------|
5.--------------------2----|
6.-------------------------|

1.-----------------------------|
2.------------------------17(19)
3.-4-2-4-2---------------------|
4.---------4-2-0-2--0----------|
5.--------------------2--------|
6.-----------------------------|

1.----------------|
2.----------------|
3.-16--9(11)-7h9--|
4.----------------|
5.----------------|
6.----------------|...


(0:39)

1.-----------------------------|
2.-----------------------------|
3.-4-2-4-2--------------/4--4-2
4.---------4-2-0-2--0----------|
5.--------------------2--------|
6.-----------------------------|

1.-----------------------------|
2.-----------------------------|
3.-4-2-----------------2-4-2---|
4.-----4-2-0-2--0----4-------4-|
5.----------------2------------|
6.-----------------------------|

1.-----------------------------|
2.-----------------------------|
3.-----------------2-4--2(4)(2)
4.-0------0-2-4--4-------------|
5.---2--2----------------------|
6.-----------------------------|...



No hay comentarios:

Publicar un comentario