.

banners

Tabs fácil de...Moriré siendo de ti. (Cover).





   "Ilussia" era el décimo segundo disco de Mägo de Oz, lanzado el 21 de octubre de 2014. Definido por Txus di Fellatio como "El disco que debió ser Gaia III: Atlantia," la trama del disco se centra en un circo abandonado que cobra vida en medio de un bosque, donde una niña se encuentra con su hermano cuando juega al escondite y acaba transformada en un payaso de nombre Skippy.
 El último corte del disco es "Moriré Siendo de Ti,"  una carta de despedida.
  Hoy en Tablaturas fáciles te queremos dejar nuestra propia versión del tema, un cover para guitarra para que disfrutes tocando de una manera diferente a los Mägo de Oz.
  Un saludo.
  TabsFácil.



Moriré siendo de ti. Mägo de oz.




1.-------------------------------------------
2.--/10--7-9-10-9-7---9-7---7-9-10-------5---
3.------------------9--------------9-7-6---7-
4.-------------------------------------------
5.-------------------------------------------
6.-------------------------------------------

1.----------------7-7----------
2.--7-9-10---9-10-----10-9-9---
3.-----------------------------
4.-----------------------------
5.-----------------------------
6.-----------------------------

1.-------------------------------------------
2.--/10--7-9-10-9-7---9-7---7-9-10-------5---
3.------------------9--------------9-7-6---7-
4.-------------------------------------------
5.-------------------------------------------
6.-------------------------------------------

1.----------------7-7-------------------------9-
2.--7-9-10---9-10-----10-9-9---------9------9---
3.---------------------------------10-----10----
4.-------------------------------9-----/11------
5.---------------------------/11----------------
6.----------------------------------------------

1.--/9-7----/12-10-9-7-----------9-10-9-------
2.-------10-------------10-10-12---------12-10
3.--------------------------------------------
4.--------------------------------------------
5.--------------------------------------------
6.--------------------------------------------

1.--/12-14-9------5-7-9-5---7-5-/4-/2---9-7---
2.-----------10-----------9-----------------10
3.--------------------------------------------
4.--------------------------------------------
5.--------------------------------------------
6.--------------------------------------------

1.--/12-10-9-7-----------9-10-9---------------
2.--------------10-10-12---------12-10-9-10---
3.------------------------------------------9-
4.--------------------------------------------
5.--------------------------------------------
6.--------------------------------------------

1.-------------/9-7----------------------------
2.------7-9-10------9-7---/10-----9-10-9--7-9-7
3.--11-------------------------11--------------
4.---------------------------------------------
5.---------------------------------------------
6.---------------------------------------------



No hay comentarios:

Publicar un comentario