.

banners

Tabs fácil de...Eye of the storm. Kadavar.



  "Eye of the storm" es un tema perteneciente al disco "Abra Kadavar" publicado en 2013 por los alemanes Kadavar, banda de rock psicodélico a la que han comparado con los primeros Led Zeppelin o Black Sabbath.
  No queremos entrar nosotros en el mundo de las comparaciones, pero sí, queremos compartir con vosotros unos momentos en tablatura del tema tercer corte del disco antes mencionado, para que lo disfrutéis y paséis un buen rato con la guitarra.
  Un saludo.
  TabsFácil.







Eye of the storm. Kadavar.

1.------------------------------------7-
2.--------------------------------7-9---
3.---8-6-----6h8h6-------------/8-------
4.-------9-8-------9--8h9-8-6-----------
5.--------------------------------------
6.--------------------------------------


1.--6h7h6-9-7-6-7-----------------------
2.--------------------------------------
3.--------------------------------------
4.----------------------------------4--6
5.------------------6--6-6--6--6-6--2--4
6.------------------4--4-4--4--4-4------


1.---------------------------------------
2.---------------------------------------
3.------------------------3h4h3---3h4h3-6
4.--4--6------------------------4--------
5.--2--4--6--6-6--6--6-6-----------------
6.--------4--4-4--4--4-4-----------------


1.------------------
2.------------------
3.------------------
4.------------------
5.---6--6-6--6--6-6-
6.---4--4-4--4--4-4-...


   (4:38)
1.------------------------------------2-
2.-------------4-4--4-------------4-4---
3.-------4h6h4--------6-4---4h6h4-------
4.---6-6------------------6-------------
5.--------------------------------------
6.--------------------------------------


1.-------------------------
2.----------4-4------------
3.----4h6h4-----6h4h3----3-
4.--3-----------------2--1-
5.-------------------------
6.-------------------------...


  (4:59
1.--------------------------------------
2.---------12-14-12-14(16)-14(16)-14(16)
3.--11-/13------------------------------
4.--------------------------------------
5.--------------------------------------
6.--------------------------------------


1.---------------------------------------
2.--14(16)-14-12--11-12-11-12-14-12-11-12
3.---------------------------------------
4.---------------------------------------
5.---------------------------------------
6.---------------------------------------


1.----------------------------------------
2.-11----11--------------------7-9-7-9-/12
3.----13----13-11-13-11-9-11-9------------
4.----------------------------------------
5.----------------------------------------
6.------------------------------------...





                                       

No hay comentarios:

Publicar un comentario