.

banners

Tabs fácil de... Vice of the people. Anthrax.





  Anthrax lanza una edición limitada de 7 pulgadas de "For All Kings" disponible exclusivamente en Norteamérica,  añadiendo al track list un nuevo tema "Vice of the People." 
  Hoy en tablaturas fáciles te queremos dejar unos momentos en tablatura del tema que esperamos, como siempre, que os guste y disfrutéis.
  Un saludo.
  TabsFácil.


Vice of the people. Anthrax.

        (3:41)

1.-18-18--18-16-14--------14-|
2.-----------------18--18----|
3.---------------------------|
4.---------------------------|
5.---------------------------|
6.---------------------------|

1.-18h16h14--------13-14-11-13
2.----------18-16------------|
3.---------------------------|
4.---------------------------|
5.---------------------------|
6.---------------------------|

1.---------------------------|
2.-14-16-12-14---------------|
3.-------------15-16-13-15---|
4.-------------------------16
5.---------------------------|
6.---------------------------|

1.---------------------------|
2.-------------------------11
3.---------------------------|
4.-18-15-16--13-15--11-13----|
5.---------------------------|
6.---------------------------|

1.---------------------------|
2.--------------11-----------|
3.-11----11--11----11----11--|
4.----13--------------13-----|
5.---------------------------|
6.---------------------------|

1.------------------------------|
2.----12--------------12--------|
3.-11----11----11--11----11----11
4.----------13--------------13--|
5.------------------------------|
6.---------------------------|...


(4:18)

1.---------------------------|
2.---------------------5--5-5
3.-/8--8-8-8-8-8-8-8-8-------|
4.---------------------------|
5.---------------------------|
6.---------------------------|

1.---------------------------|
2.-5-5-5-5-5-5--8--8-8-8-8-8-|
3.---------------------------|
4.---------------------------|
5.---------------------------|
6.---------------------------|

1.------------------6-7---------|
2.-8-8-8--9---9-9-9--------14(16)
3.------------------------------|
4.------------------------------|
5.------------------------------|
6.---------------------------|...




No hay comentarios:

Publicar un comentario