.

banners

Tabs fácil de... Era. Opeth.



  Extraído del último trabajo "Sorceress" publicado allá por el mes de Septiembre pasado, Opeth sacaba como single a primeros de este año "Era" del que hoy en tablaturas fáciles os queremos dejar un pequeño momento en tablatura para los que os guste la banda y toquéis la guitarra, paséis un rato entretenido practicando.
  Un saludo.
  TabsFácil.




 Era. Opeth.


(1:10)

1.----------------------------|
2.----------------------------|
3.----------------------------|
4.----------------------------|
5.----------------------------|
6.-5-5-5-5--3/5--5-5-5-5--3/5-|

1.----------------------------|
2.----------------------------|
3.----------------------------|
4.----------------------------|
5.----------------------------|
6.-5-5-5-5--3/5--5-5-5-5--3/5-|...


(4:43)

1.----------------------------|
2.--------------------------5-|
3.-7(9)-7h5-7(9)(7)(9)--7(9)--|
4.----------------------------|
5.----------------------------|
6.----------------------------|

1.-5--------------------------|
2.---5-8--8(10)(10)(8)-----14-|
3.---------------------/14----|
4.----------------------------|
5.----------------------------|
6.----------------------------|

1.----------------------------|
2.-12-12(13)(12)(13)(12)(13)(12)
3.----------------------------|
4.----------------------------|
5.----------------------------|
6.----------------------------|

1.----------------------------|
2.-12h13h12h13--10h12h10h12---|
3.----------------------------|
4.----------------------------|
5.----------------------------|
6.----------------------------|

1.--------------|
2.--------------|
3.-12h14h12h14--|
4.--------------|
5.--------------|
6.--------------|...







No hay comentarios:

Publicar un comentario