.

banners

Tabs fácil de... Big Boys. Chuck Berry.


    Hace unos días moría el padre del rock and roll, Chuck Berry, a los 90 años, justo antes de que su discográfica, Dualtone Records, saque 'Big Boys', un tema inédito del álbum póstumo que lleva su nombre: 'CHUCK'. 
 Desde 1972, más de 40 años, que no salía al mercado material creado por el músico. 
 Durante la segunda década del siglo XX, el mundo vio nacer influido fuertemente por la cultura sureña de Estados Unidos, y dejándose arrastrar por la corriente imparable del boogie-woogie, el blues, el swing... el rock and roll.
Fue gracias a Muddy Waters donde Chuck Berry dio forma al rock and roll que se comenzó a gestar a finales de los años 50 con Johnny B. Goode, un riff de guitarra que lo define al completo. También al músico que cabalgaría junto a otros como Buddy Holly, Elvis Presley, Little Richard o Jerry Lee Lewis mientras el rock iba evolucionando. 
  Después de su muerte, el músico dejó preparado un álbum de estudio póstumo, CHUCK, que saldrá a la venta el próximo 16 de junio. Ahora, y 38 años después de su último disco (Rock It, 1979), podemos escuchar su single: Big Boys.
  En tablaturas fáciles os queremos dejar un momento en tablatura del tema, que esperamos que os guste y disfrutéis.
  Un saludo.
  TabsFácil.




Big Boys. Chuck Berry.

1.----------8-8--8-8-8-8--8-8-8-|
2.----8-10--8-8--8-8-8-8--8-8-8-|
3.-/9---------------------------|
4.------------------------------|
5.------------------------------|
6.------------------------------|

1.------------------------------|
2.------------------------------|
3.-10/12h10---------------------|
4.----------10/13-10-----10-10--|
5.-------------------13--10-10--|
6.------------------------------|

1.------------------------------|
2.------------------------------|
3.------------------------10(12)
4.-10-10-10-10--10-10-10--------|
5.-10-10-10-10--10-10-10--------|
6.------------------------------|

1.------------------------------|
2.------------------------------|
3.-(12)-10--8h8(10)(8)---8-8----|
4.--------------------10-----10-|
5.------------------------------|
6.------------------------------|

1.--------------|
2.-7(8)-7(8)----|
3.--------------|
4.--------------|
5.--------------|
6.--------------|...


(2:40)

1.---------------------------------|
2.-13--13-11-13--13-11-13h13(16)(13)
3.---------------------------------|
4.---------------------------------|
5.---------------------------------|
6.---------------------------------|

1.---------------------------------|
2.-13--13-11-13--13-11-13h13(16)(13)
3.---------------------------------|
4.---------------------------------|
5.---------------------------------|
6.---------------------------------|

1.------------------------------|
2.-------16---------------------|
3.-17-15----17-15---------------|
4.----------------17-15----15-17
5.----------------------18------|
6.------------------------------|

1.------------------------------|
2.------------------------------|
3.------------------------------|
4.-15(17)-13----13-------8------|
5.-----------15-----8h10---8-10-|
6.------------------------------|

1.--------------------|
2.--------------------|
3.-----------------8--|
4.-8------8------8----|
5.---8-10---8h10------|
6.--------------------|...



No hay comentarios:

Publicar un comentario