.

banners

Tablatura fácil de... Victor's piano solo. La novia cadáver. (B.S.O).


   De la película "La novia cadáver" o el cadáver de la novia  dirigida por Tim Burton y basada en un cuento popular ruso-judío, en tablaturas fáciles te queremos dejar unos momentos en tablatura, un cover de una de las partes más emotivas de la banda sonora de la película, "El solo de piano de Víctor."  La película, ambientada en la época victoriana, muestra el estilo y los temas clásicos de Tim Burton, cuya banda sonora fue escrita por Danny Elfman.
  Pasa un buen rato y disfruta tocando este clásico de piano adaptado a la guitarra en su formato tablatura.
  Otras tablaturas pertenecientes a la película que puedes encontrar en www.tabsfacil.es:

Tablatura fácil de...La novia cadáver. B.S.O.
  
  Un saludo.
  TabsFácil.







Tablatura fácil de... Victor's piano solo. La novia cadáver. (B.S.O).


1.-2-3-------------------------|
2.-----3-4-------------------5-|
3.---------4-5-------------6---|
4.-------------4-5--6----6-----|
5.---------------------4-------|
6.-----------------------------|

1.------------------4--4-4--4-4
2.-----------5-----------------|
3.-6-------6---6---------------|
4.---6---6-------6-------------|
5.-----4-----------------------|
6.-----------------------------|

1.-5-4--4-7--7-7--5-4----------|
2.---------------------7--7-9--|
3.-----------------------------|
4.-----------------------------|
5.-----------------------------|
6.-----------------------------|

1.-----------------------2--2-2
2.-10-9--5--5--5------7--------|
3.---------------8--6----------|
4.-----------------------------|
5.-----------------------------|
6.-----------------------------|

1.-2--2-2------4--4-4-4-4-4--4-4
2.--------5--4-----------------|
3.-----------------------------|
4.-----------------------------|
5.-----------------------------|
6.-----------------------------|

1.-4-4-4-----------------------|
2.--------5-5--4---------------|
3.----------------6-6-5--6-6--6
4.---------------------------8-|
5.-----------------------------|
6.-----------------------------|

1.-----------------------------|
2.------5--5-5--7--9-9--9------|
3.-8--8--------------------11-9
4.-----------------------------|
5.-----------------------------|
6.-----------------------------|

1.-----------------------------|
2.-------------9--9-9-9-9-9--9-|
3.-9-9-8-----------------------|
4.-------11-8------------------|
5.-----------------------------|
6.-----------------------------|

1.-------------------------7--7
2.-9-9-9-9--9-9-10-9-----------|
3.-------------------9---------|
4.---------------------11------|
5.-----------------------------|
6.-----------------------------|

1.-7-7--7-7-7------------------|
2.-------------12-12-12--10-12-|
3.-----------------------------|
4.-----------------------------|
5.-----------------------------|

6.-----------------------------|

1.----7-8-10--12-12------------|
2.-12-----------------------5-5
3.-------------------4-5-7-----|
4.-----------------------------|
5.-----------------------------|

6.-----------------------------|

1.------------|
2.-0-1-3--5-5-|
3.------------|
4.------------|
5.------------|
6.------------|...




No hay comentarios:

Publicar un comentario